PrimaNota.ru - самый крупный в мире бесплатный архив песенных текстов, аккордов, табулатур и нот


Парк Горького - Try To Find Me - текст песни, таба, бас-таба, видео

Регистрация Запомнить меня
Войти через:  Facebook Google Twitter Vk Yandex Mail.ru

Парк Горького - Try To Find Me - текст песни, таба, бас-таба, видео

Печатать
Просмотров: 1144
Hi every1 im bk. I noticed that it dont have much tabs for the song im attempting to do. 
do the intro and the clean tone part of the solo with a piece of the distorted part. 
the clean tone part, it would sound sweeter if u use a chorus effect foot switch.


Intro:

  1st |---0--4--2--0--4--2--0--------------0--4--2--0--4--2--0----2--|
  2nd |-0----------------------2-2--0----0----------------------2----|

  1st |---0--4--2--0--4--2--0--------------0--4--2--0--4--2--0----2--|
  2nd |-0----------------------2-2--0----0----------------------2----|

  The 2 touch harmonics on the 1st string on the 5th fret and then on the 7th fret.

Clean Tone Solo:

|--------------------------------------------------------------------------7---|
|-9--7------7-------10--9--7-------------------------7-------------------7-----|
|-------9-9---6---6----------9--6--4---6----6--8--9----8---6--7--6--8--9-------|
|-----------------------------------------7------------------------------------|
|------------------------------------------------------------------------------|
|------------------------------------------------------------------------------|

|------------------------------------------------------------------4-5-5-7-7---|
|-9--7------7-------10--9--7-------------------------7--9--7-------------------|
|-------9-9---6---6----------9--6--4---6----6--8--9-----------8--6-------------|
|-----------------------------------------7------------------------------------|
|------------------------------------------------------------------------------|
|------------------------------------------------------------------------------|

(1st string)
|-----------------------------------------------------------9-9-11-11-12-11----|


Distorted Part:
   B R      B R
|--14--12--14---17--16--14-------------19--------14--14--12-------|
|--------------------------17--14--16-----12--14-------------14---|
|-----------------------------------------------------------------|
|-----------------------------------------------------------------|
|-----------------------------------------------------------------|
|-----------------------------------------------------------------|

(Pinch on bend)
 B R      B R
|--14--12--14---17--16--14-------------19-------------------------|
|--------------------------17--14--16-----------------------------|
|-----------------------------------------------------------------|
|-----------------------------------------------------------------|
|--------------------------------------------------7--7--5--------|
|--------------------------------------------5--7-----------7-----|

Thats all i worked out so far, sorry guys. I posted it in parts so it will be easy for 
to understand. I'll work out the rest when i get some time.

Have fun and email me if u think i can help u to work out songs.
Добавлено: 27.05.2012
Другие материалы по этой песне:

Страница создана 15.03.2012
http://primanota.ru/gorky-park/try-to-find-me-chords.htm
Привет, Гость.
Предлагаем пройти революционный курс по гитаре.
Подарок от PrimaNota.Ru, забирай!