PrimaNota.ru - самый крупный в мире бесплатный архив песенных текстов, аккордов, табулатур и нот


Парк Горького - Две свечи - аккорды и текст, видео

Регистрация Запомнить меня
Войти через:  Facebook Google Twitter Vk Yandex Mail.ru

Парк Горького - Две свечи - аккорды и текст, видео

Печатать
Просмотров: 3575
Две свечи
Парк Горького
Transcribed by Evgeny Muzichuk (2:4614/24.5)

Обозначения : F-флажолет.

Intro

|-----0------0------0-----0-----0-----0---0-----2--------5-----7--
|---0------0---10-------0-----0-----0---------0-------2-------5---
|-9-----11------------7-----9-----5---------0-------0--------4----
|-----------------------------------------2-----------------------
|-------------------------------------------------3---------5-----
|-------------------0---------------------------------------------

                              Здесь идёт быстрое арпеджио p,i,m,a,m,i
|-5/6\5---5-------------0-----------0-----------0-----------0-----------0-----
|-------8----1/3-1/2--0---3-------3---3-------3---3-------3---3-------3---5---
|------------2/4-3/4--0-----5---5-------5---5-------5---5-------5---5-------5-
|-----------------------------5-----------5-----------5-----------4-----------
|-----------------------------------------------------------------------------
|-0---------------------------------------------------------------------------

|-------0-----------0------------2-----------3-----------5---------7--F7------
|-----3---3-------0---0--------0---0-------0---0-------4---4------6-----6-----
|---5-------5---0-------0----0-------0---0-------0---5-------5---7--------7---
|-4-----------2------------0-----------2-----------4------------6-----------6-
|-----------------------------------------------------------------------------
|-----------------------------------------------------------------------------

|-7----7-5/7\5--------2/3\2\0----------------0--F12-------------
|-----5--------8-7-------------5--4--4/7----0---------F12----F7-
|----5-------------------------------------0-------F12----------
|------------------------------4--------------------------F7----
|---0----------------3---------2--2-----------------------------
|-------------------0---------------------0---------------------

Hепосредственно проигрыш.
1:   2 раза

   Гитара 1
|-0-----3-----2---0-----3-----2---0-----3-----2---2-----5-------2-----------
|-----0-----0---------0-----0---------1-----1---------3---3---3-------------
|---0-----0-----0---0-----0-----0---0-----0-----0---2-------2---------------
|---------------------------------2---------------4-------------------------
|-----------------3---------------------------------------------------------
|-0-------------------------------------------------------------------------
   Гитара 2
|-------0--0------------0--0------------0--0------------2--2---------
|-------0--0------------0--0------------1--1------------3--3---------
|-----0----0----------0----0----------0----0----------2----2---------
|---2------2--------2------2--------2------2--------4------4---------
|-2--------2------3--------3------0--------0------2--------2---------
|----------0---------------------------------------------------------

2:   2 раза
    Гитара 1
|-0--------------------------------
|---------0-------1-------3--------
|-------0---0---0-----0-------0----
|-----4-------4-----2---2---4---4--
|---2-------------3-------5--------
|-0--------------------------------
    Гитара 2
|------0--------------0-------0----
|-----0--------------1-------3-----
|----0--------------0-------0------
|---4--------------3-------4-------
|--2--------------3-------5--------
|-0--------------------------------

Куплет:
    Гитара 1
|-0-------0---------------2----------------3---------------3----------------
|-------0---------0-----0----------------0---------------0------------------
|-----0-------0-------2--------2-------0-------0-------0-------0------------
|---2-------2---2---1--------1---1---0-------0---0---0-------0---0----------
|-----------------2---------------------------------------------------------
|-0--------------------------------3---------------3------------------------

|-------1-----1-------------------------------------------------------------
|-----1-----1-------------3---------------1-------------1-------1-----------
|---2-----2-----2-----1-------1-------2-------2-------2-------2-------------
|-0-----------------2---2---2---2---2---2---2---2---2-------2---------------
|-----------------2---------------0---------------0-------------------------
|---------------------------------------------------------3-----------------

|-------------------------1--------------------------------0----------------
|---------1-------------1---1--------------0-------------0---0--------------
|-----2-------2-------2-------2--------0-------0-------0-------0------------
|---3---3---3---3---3-----------3----2---2---2---2---2-----------2----------
|---------------------------------------------------------------------------
|-1---------------1----------------0---------------0------------------------

|-------------------------2----------------------|--------2-----------------
|---------2-------------2---2-------------1------|--------------------------
|-----3-------3-------3-------3-------2-------2--|----2-------2-------------
|---4---4---4---4---4-----------4---2---2---2---2|--1---1---1---1-----------
|---------------------------------0--------------|2-------------------------
|-2---------------2------------------------------|--------------------------
                                                  ^^^^^^^^^^^^^^^^^^^^^^^^^^
                                                  В куплетах перед припевом
                                                  это играется 2 раза.
   Гитара 2
 Если эту песню играть как инструменталку, то вторая гитара может играть
вместо голоса. Желательно с какой нибудь приставкой типа Drive

 куплет 1
1|-0--7-7--5-3-5-7-7--5-5-7-4--4-4-0-8--5-5-5-7-8--10-7-5--3-3-3-7-5--

1|-2-2-2-3-2-2-5-7-8--12-11-

 куплет 2
То же, только на тональность ниже.

Припев:
2 раза:
Em,D*,C*,D*
(D* - D с пустой первой струной)
(C* - C с пустой второй струной)
 Для красоты можно играть пальцами "врассыпку", sorry за непрофессиональный
термин. Вроде как Корриду.

Вторая гитара может подигрывать терциями:

1|-3-3--7-5-3--3-5-7--5-3-2-|-2-2-3--------------------------------------
2|-5-5--8-7-5--5-7-8--7-5-3-|-3-3-5---------------------------------------
                              ^^^^^-Это играется только второй раз.

Далее идёт проигрыш1,2 , куплет , проигрыш1, а затем идёт следующее:

 Играется в 3/4, в отличии от всей остальной песни (4/4).

Гитара1 (ритм):
2|-------0-----------0-----------0-----------0-----------0/1-0-------0-----
3|-----0---0-------2---2-------2---2-------2---2-------0-----------2---2---
4|---2-------2---1-------1---0-------0---2-------2---2-----------1-------1-
5|-------------0-----------------------0-----------3-----------0-----------
6|-0-----------------------2-----------------------------------------------

2|-------0-----------0-----------3-----------3-----------0-----------0-----
3|-----2---2-------2---2-------0---0-------0---0-------2---2--------2------
4|---0-------0---2-------2---2-------2---2-------2---4-------4-----4-------
5|-------------0-----------3-----------3-----------5-----------5--5--------
6|-2-----------------------------------------------------------------------

Гитара2 (соло):
IMHO сыграть по табам соло будет сложновато, так что кому надо,могу этот кусо-
чек закинуть в .MID файле.
1|------7-8-7-5----7-5----7-5----7--------7-8-7-5----7-------------------12-
2|--5-8----------4-------------4------5-8----------4---7--8-10--12-10-12----
3|----------------------3-----------5---------------------------------------

1|----------------------8--7-----------------------------------------------
2|-12-10-13-12-10-8----------10-8-13-12-10-8-7-8-10------------------------
3|------------------9-7----------------------------------------------------

 Затем идёт опять припев и проигрыш1,2
Добавлено: 05.07.2012
Другие материалы по этой песне:
  • Аккорды и текст

Страница создана 05.07.2012
http://primanota.ru/gorky-park/dve-svechi-chords.htm
Привет, Гость.
Предлагаем пройти революционный курс по гитаре.
Подарок от PrimaNota.Ru, забирай!