PrimaNota.ru - самый крупный в мире бесплатный архив песенных текстов, аккордов, табулатур и нот


Gorillaz - Bill Murray - текст песни, бас-таба, видео

Регистрация Запомнить меня
Войти через:  Facebook Google Twitter Vk Yandex Mail.ru

Gorillaz - Bill Murray - текст песни, бас-таба, видео

Печатать
Просмотров: 317
Уроки эстрадного вокала в Санкт-Петербурге
Авторы музыки: Gorillaz
Авторы текста: Gorillaz
Bill Murray By Gorillaz
(From The Feel Good Inc. Single)

This is a very easy song, most of it is just open string, and its mainly just on the 
fret. Very fun to play as well :P

(Just a sidenote, most of the song is an instrumental, so i'll try to identify the 
parts)

(Tuning = GDAE)

You should hear the song first to get the true feeling of it, obviously.


-Instrumental-

G|--------|--------|--------|--------|
D|--------|--------|--------|--------|
A|000-0---|--------|000-0---|--------|
E|---0----|-----2-0|---0----|-----4-0|
(8X)

-Bass Solo (About 55 Seconds In)-

G|--------|--------|--------|--------|
D|--------|--------|--------|--------|
A|00---0--|--------|00---0--|--------|
E|---0---0|-222-0--|---0----|22202-0-|

G|--------|--------|--------|--------|
D|--------|--------|--------|-222-0--|
A|00---0--|--------|00---0--|--------|
E|---0----|222-0---|---0---0|--------|
(2X)

-Second Instrumental- (After Solo)

G|--------|--------|--------|--------|
D|--------|--------|--------|--------|
A|000-0---|--------|000-0---|--------|
E|---0----|---222-0|---0----|---444-8|
(6X)

-Second Half Of Trumpet Section (at 2:42)

G|--------|--------|--------|--------|
D|--------|--------|--------|--------|
A|000-0---|--------|000-0---|--------|
E|---0----|-----2-0|---0----|-----4-0|

G|--------|--------|--------|--------|
D|--------|--------|--------|--------|
A|000-0---|--------|000-0---|--------|
E|---0----|-----2-0|---0----|--------|

-Ending Instrumental- (Accompanied By 'Too Many Days To Get Lost...')

G|--------|--------|--------|--------|
D|--------|--------|--------|--------|
A|000-0---|--------|000-0---|--------|
E|---0----|-----2-0|---0----|-----4-0|
(8X)

-End-

I did the best i could on the beats.  The very last section (Ending Instrumental) may be 
10 times, but it depends on what version of the song you have. I believe there are 2 versions.

-Chris Kolar
-Ckolar612@yhoo.com
-BassFishin
Добавлено: 27.01.2014
Другие материалы по этой песне:
  • Аккорды и текст

Страница создана 24.07.2012
http://primanota.ru/gorillaz/bill-murray-chords.htm
Привет, Гость.
Предлагаем пройти революционный курс по гитаре.
Подарок от PrimaNota.Ru, забирай!