PrimaNota.ru - самый крупный в мире бесплатный архив песенных текстов, аккордов, табулатур и нот


Gorillaz - Dirty Harry - аккорды и текст, таба, бас-таба, видео

Регистрация Запомнить меня
Войти через:  Facebook Google Twitter Vk Yandex Mail.ru

Gorillaz - Dirty Harry - аккорды и текст, таба, бас-таба, видео

Печатать
Просмотров: 428
Авторы музыки: Romye Robinson, Gorillaz

Dirty Harry
Gorillaz
Main riff
G--------------------------------------------------------------------|
D----------3------------------------------3--------------------------|
A-------4----------6---4---------------4---------6---4---------------|
E----6--------------------6---------6-------------------6---6---9---6|
 
(im not sure if on the second part after the 6.4.3. if theres an 8 on
the A string thats half as long as others.)

Weird bit
G|-------------------------------------------------------------------|
D|-------------------------------------------------------------------|
A|--1/4--4/8--8/4--4/8--8/4--4-3-1-----------------------------------|
E|-------------------------------------------------------------------|
Добавлено: 20.02.2014
Другие материалы по этой песне:
  • Аккорды и текст

Страница создана 19.03.2012
http://primanota.ru/gorillaz/dirty-harry-chords.htm
Привет, Гость.
Предлагаем пройти революционный курс по гитаре.
Подарок от PrimaNota.Ru, забирай!