PrimaNota.ru - самый крупный в мире бесплатный архив песенных текстов, аккордов, табулатур и нот


Gorillaz - 19-200 - текст песни, таба, видео

Регистрация Запомнить меня
Войти через:  Facebook Google Twitter Vk Yandex Mail.ru

Gorillaz - 19-200 - текст песни, таба, видео

Печатать
Просмотров: 200
Band: Gorillaz
Song: 19-2000
Album: Gorillaz
Tabbed by: Yemblewat

The tabbing of this song is all my own work.
It is originally played in keyboard, so you may pull a little harder to make 
it sound similar.

|---------3-----|   x2
|----3-------3--|
|-------4-------|
|---------------|
|---------------|
|--3------------|

|-----0------5-----|  Only once. Then repeat 1st part.
|--------2-----5---|
|------------------|
|------------------|
|--0---------------|
|------------------|
     
Добавлено: 24.08.2013
Другие материалы по этой песне:
  • Аккорды и текст

Страница создана 24.08.2013
http://primanota.ru/gorillaz/19-200-chords.htm
Привет, Гость.
Предлагаем пройти революционный курс по гитаре.
Подарок от PrimaNota.Ru, забирай!