PrimaNota.ru - самый крупный в мире бесплатный архив песенных текстов, аккордов, табулатур и нот


Gorillaz - Mr Softys Balloon Race - текст песни, бас-таба, видео

Регистрация Запомнить меня
Войти через:  Facebook Google Twitter Vk Yandex Mail.ru

Gorillaz - Mr Softys Balloon Race - текст песни, бас-таба, видео

Печатать
Просмотров: 174
Уроки эстрадного вокала в Санкт-Петербурге
Tabs by me (Majoreczka)
It's first tab written by me


G |----------------------------------------------------|
D |----------------------------------------------------|  
A |-0------0------0------0------0------0------0-----0--|
E |----------------------------------------------------|

G |--------2---------|
D |-----2----2-222---|  
A |-0-0------------0-|
E |------------------|


Well I think it's something like that
http://www.youtube.com/watch?v=H1zU_3A3qq4
Добавлено: 29.09.2013
Другие материалы по этой песне:
  • Аккорды и текст

Страница создана 29.09.2013
http://primanota.ru/gorillaz/mr-softys-balloon-race-chords.htm
Привет, Гость.
Предлагаем пройти революционный курс по гитаре.
Подарок от PrimaNota.Ru, забирай!