PrimaNota.ru - самый крупный в мире бесплатный архив песенных текстов, аккордов, табулатур и нот


Gorgoroth - Maaneskyggens Slave - таба, видео

Регистрация Запомнить меня
Войти через:  Facebook Google Twitter Vk Yandex Mail.ru

Gorgoroth - Maaneskyggens Slave - таба, видео

Печатать
Просмотров: 203
Artist: Gorgoroth
Title: Maaneskyggens slave
Album: Pentagram

Tabbed by elc (elc@o2.pl;elc@onet.pl)

As with any Gorgoroth song, the sound is very distorted and because of this
hearing every note is sometimes imposible. If U find some riff incorect, feel
free to tell me.

Riff 1, tremolo picking,
e|-------------------|
B|-10----------------|
G|-9-------10-10-9---|
D|-7-------10--------|
A|-7-------8---------|
E|-------------------|

Riff 2, first time "normal" picking, then tremolo,
e|---------------------------------------------------------------------|
B|---------------------------------------------------------------------|
G|---9----------------------7---------9-----7----------------7-9-10-9--|
D|-7---109-7-109-7---109-10---109-6-7---109---109-7---109-10-----------|
A|-----------------8--------------------------------8------------------|
E|---------------------------------------------------------------------|

Riff 3, tremolo picking, it's almost the same as Riff2 played an octave lower
play it once and go back to Riff2
e|-----------------------------------------------------------------|
B|-----------------------------------------------------------------|
G|-----------------------------------------------------------------|
D|---2---------------------0---------2-----0---------------0-2-3-5-|
A|-0---3-2-0-3-2-0---3-2-3---3-2---0---3-2---3-2-0---3-2-3---------|
E|-----------------1-------------4-----------------1---------------|


Riff 4, tremolo picking, listen for timing, notes in brackets () - play one
of them, or both, it sounds good anyway
e|---------------------------------------------|
B|---------------------------------------------|
G|---------------------------------------------|
D|-7---9-109-7---109-10-(7)--109-10-6---7-9-10-|
A|----------------------(8)--------------------|
E|---------------------------------------------|

Riff 5, tremolo picking, watch out for timing,
notes in brackets () - like in Riff 4
e|-----------------|
B|-----------------|
G|-----------------|
D|-7------(7)--9-6-|
A|--------(8)------|
E|-----------------|
Добавлено: 05.03.2012
Другие материалы по этой песне:

Страница создана 05.03.2012
http://primanota.ru/gorgoroth/maaneskyggens-slave-chords.htm
Привет, Гость.
Предлагаем пройти революционный курс по гитаре.
Подарок от PrimaNota.Ru, забирай!