PrimaNota.ru - самый крупный в мире бесплатный архив песенных текстов, аккордов, табулатур и нот


Gorgoroth - Open The Gates - таба, видео

Регистрация Запомнить меня
Войти через:  Facebook Google Twitter Vk Yandex Mail.ru

Gorgoroth - Open The Gates - таба, видео

Печатать
Просмотров: 197
GORGOROTH

- Open the Gates -
                           
from the Album

"DESTROYER - Or how to Philosophize with the Hammmer"
****************************************************************


transcribed by P.Schürmann on the 16th Day of the 1st Month of the new Dark-Millenium... Gloria Satanas

e-Mail: AbbathDoom@aol.com


Riff 1
e|-------------------------------------------------|
h|-------------------------------------------------|
G|-9-999-9-999-8-888-8-888-5-555-5-555-8-888-8-888-|
D|-7-777-7-777-6-666-6-666-3-333-3-333-6-666-6-666-|
A|-------------------------------------------------|
E|-------------------------------------------------|
  pm ~~~   ~~~   ~~~   ~~~   ~~~   ~~~   ~~~   ~~~

Riff 2 pick fast
e|-------------------------------------|
h|-------------------------------------|
G|----9-7-5----8-7-5----8-7-5----9-7-5-|
D|-7--------6--------3--------6--------|
A|-------------------------------------|
E|-------------------------------------|

Riff 3 pick fast
 |1.2.3.              |4.
e|--------------------|------------------------|
h|--------------------|------------------------|
G|-9-----7---5---4----|-9-----7---9---10---9-7-|
D|-7------------------|-7----------------------|
A|--------------------|------------------------|
E|--------------------|------------------------|

Riff 4
e|-----------------------|
h|-----------------------|
G|-9---------5-----4-----|
D|-7---------3-----2-----|
A|-----------------------|
E|-----------------------|


-Listen to the Song for the Structure

-----------------------------------------------------------------
For Corrections or Bloody Blasphemy mail to: AbbathDoom@aol.com

666 - Gloria Satanas
Добавлено: 26.06.2012
Другие материалы по этой песне:

Страница создана 11.05.2012
http://primanota.ru/gorgoroth/open-the-gates-chords.htm
Привет, Гость.
Предлагаем пройти революционный курс по гитаре.
Подарок от PrimaNota.Ru, забирай!