PrimaNota.ru - самый крупный в мире бесплатный архив песенных текстов, аккордов, табулатур и нот


Gorgoroth - Procreating Satan - текст песни, таба, видео

Регистрация Запомнить меня
Войти через:  Facebook Google Twitter Vk Yandex Mail.ru

Gorgoroth - Procreating Satan - текст песни, таба, видео

Печатать
Просмотров: 245
-----------------------------------------------|
-----------------------------------------------|
-----------------------------------------------|
-----------------------------------------------|
---55555555555444444444433333333334444444444---|
---33333333333222222222211111111112222222222---|

-----------------------------------------------|
-----------------------------------------------|
-----------------------------------------------|
-----------------------------------------------|
---55555555555444444444433333333332222222222---|
---33333333333222222222211111111110000000000---|


Riff 2:

------------------------------------------------------------|
------------------------------------------------------------|
------------------------------------------------------------|
-------------------3333------3333------3333------3333-------|
------555544445555------5555------5555------4444-----4444---|
-3333-------------------------------------------------------|

----------------------|
----------------------|
----------------------|
----------------------|
---6666555533335555---|
----------------------|


Riff 3:

---------------------------------------------------------------|
---------------------------------------------------------------|
---------------------------------------------------------------|
---------22222----222211111111---------------------------------|
-2222222------2222-------------11112222------1111--------------|
-0000000------0000----------------------3333------111111111----|


Riff 4:

-------------0------------------0----------------------------------------------|
-----------------0-----------0----0--------------------------------------------|
--------------------0------0---------------------------------------------------|
---2-------------------2--------------------3----4----------3------------------|
---2-----------------------------------------1----2----5----1------3--3--3-----|
---0-----------------------------------------------------3------------1--1--1--|


Riff 5:

-------------------------------------------------------------|
-------------------------------------------------------------|
-------------------------------------------------------------|
-------------------------------------------------------------|
---777777777--------------------777777777777777777-----------|
-------------666666666777777777------------------------------|

---888888888888-----------------------------------888888888888888888888---|
---666666666666-7777777778888888888-666666666666666666666-----------------|
-------------------------5555555556666666666------------------------------|
--------------------------------------------------------------------------|
--------------------------------------------------------------------------|
--------------------------------------------------------------------------|

Riff 6:


Riff 6:

-------------------------------------------------------------|
-------------------------------------------------------------|
-------------------------------------------------------------|
---999999999999999998888888888888888--------------88888888---|
---7777777777777777766666666666666667777777788888866666666---|
------------------------------------55555555666666-----------|

well thats it! easy as Hell! remember i'm not sure if it sounds best on Standar or not. 
to Tune down one whole step and listen!
Добавлено: 07.05.2012
Другие материалы по этой песне:

Страница создана 07.05.2012
http://primanota.ru/gorgoroth/procreating-satan-chords.htm
Привет, Гость.
Предлагаем пройти революционный курс по гитаре.
Подарок от PrimaNota.Ru, забирай!