PrimaNota.ru - самый крупный в мире бесплатный архив песенных текстов, аккордов, табулатур и нот


Gomez - Notice - текст песни, таба, видео

Регистрация Запомнить меня
Войти через:  Facebook Google Twitter Vk Yandex Mail.ru

Gomez - Notice - текст песни, таба, видео

Печатать
Просмотров: 227
Авторы музыки: Ian Ball, Olly Peacock, Tom Gray, Ben Ottewell, Paul Blackburn
Авторы текста: Ian Ball, Olly Peacock, Tom Gray, Ben Ottewell, Paul Blackburn
-------------------------------------------------------------------------------
                               NOTICE - Gomez
-------------------------------------------------------------------------------

I've been looking for a tab for this really good song for a long time but I haven't
one yet so I decided to do as much as I could at least.
I'm pretty sure the notes are correct but the timing is a bit off.
Anyway, if someone who's more experienced than me likes this song it would be nice if
took the rest.

Tabbed by: johlin
Email: johanlindblad@gmail.com

Tuning: Standard (E A D G B e).

e||--------------------------------------------------|
B||--------------------------------------------------|
G||--------------------------------------------------|
D||-----4-------4h-6-----4-------4-------4h-6--4-----|
A||-----------------------------------------------7--|
E||--0-------0--------0-------0-----0----------------|

E||-------------------------------------------||
B||-------------------------------------------||
G||-------------------------------------------||
D||-------------------------------------------||
A||-----7-----7----7-------7h-9-------9p-6----||
E||--0-----0------0-----0----------0----------||
Добавлено: 05.04.2012
Другие материалы по этой песне:
  • Аккорды и текст

Страница создана 29.03.2012
http://primanota.ru/gomez/notice-chords.htm
Привет, Гость.
Предлагаем пройти революционный курс по гитаре.
Подарок от PrimaNota.Ru, забирай!