PrimaNota.ru - самый крупный в мире бесплатный архив песенных текстов, аккордов, табулатур и нот


Gomez - Devil Will Ride - текст песни, таба, видео

Регистрация Запомнить меня
Войти через:  Facebook Google Twitter Vk Yandex Mail.ru

Gomez - Devil Will Ride - текст песни, таба, видео

Печатать
Просмотров: 154
Уроки эстрадного вокала в Санкт-Петербурге
Авторы музыки: Ian Ball, Olly Peacock, Tom Gray, Ben Ottewell, Paul Blackburn
Авторы текста: Ian Ball, Olly Peacock, Tom Gray, Ben Ottewell, Paul Blackburn
-------------------------------------------------------------------------------
                             DEVIL WILL RIDE - Gomez
-------------------------------------------------------------------------------
Tabbed by: 100%guitarmad
Email: edmedmoped@yahoo.co.uk

Tuning: Standard

UPDATE [16.11.08]: Replaced '12345' with 'eBGDAE'.



Main Chords

     E    A7   D    E7 Amaj7 C#m11 C   B
e|---0----0----2----0----0-----0-----------|
B|---0----2----3----3----2-----2---5---4---|
G|---1----1----2----1----0-----4---5---4---|
D|---2----2----0----2----2-----4---5---4---|
A|---2----0---------2----0-----4---3---2---|
E|---0--------------0----------------------|



-----
Intro (18 bars)
-----

E A7 E A7            D       A            E
          Guess it's bye bye baby bye bye.

           D       A
Guess it's bye bye baby bye bye.

With wah and distortion:
e|-------------------------|---------------------------|
B|-------------------------|---------------------------|
G|-7--/9-9---9-------------|-11-/13-13--13-------------|
D|-7--/9-9---9-------------|-11-/13-13--13-------------|
A|-5--/7-7---7-------------|-9--/11-11--11-------------|
E|-------------0-----0---0-|---------------0-----0---0-|
   1 + . 2 + . 3 + . 4 + .   1 + .  2 + .  3 + . 4 + .

e|--------------------------|-------------------------|
B|--------------------------|-------------------------|
G|-14--13\---9/11--9/11--13\|-----4-4-----4---4-4-----|
D|-14--13\---9/11--9/11--13\|-----4-4-----4---4-4-----|
A|-12--11\---7/9---7/9---11\|-----2-2-----2---2-2-----|
E|--------------------------|-------------------------|
   1 + . 2 + . 3 + . 4 + .    1 + . 2 + . 3 + . 4 + .

-------
Verse 1 (16 bars)
-------

E7           A
If you will, devil may ride.

Amaj7      C#m11
Invitation makes you feel fly.

E7           A
If you will, devil may ride when the

Amaj7      C#m11
invitation makes you feel fly.

E7           A
If you will, devil will ride when the

Amaj7      C#m11
invitation makes you feel fly.

E7         A
   Did you ever even try when the

Amaj7          C#m11
inspiration's  set to run

------
Chorus (8 bars)
------

C        D                   E
dry, and everybody wants a good time.

  C       D                   A
Yeah, and everybody wants a good time, so get by.

-------
Verse 2 (18 bars)
-------

E           A7                        E          A7
World goin' mad out there. Throw away   all your treasured posessions.

                E                    A7
'Cause even the   Royal Mail can't deliver us from what we got into.

           D       A            E              D       A            B
Guess it's bye bye baby bye bye.    Guess it's bye bye baby bye bye,  you know...

----
Solo (16 bars)
----

e|-------------------------|---------------------------|
B|-------------------------|---------------------------|
G|-7--/9-9---9-------------|-11-/13-13--13-------------|
D|-7--/9-9---9-------------|-11-/13-13--13-------------|
A|-5--/7-7---7-------------|-9--/11-11--11-------------|
E|-------------0-----0---0-|---------------0-----0---0-|
   1 + . 2 + . 3 + . 4 + .   1 + .  2 + .  3 + . 4 + .

e|--------------------------|-------------------------|
B|--------------------------|-------------------------|
G|-14--13\---9/11--9/11--13\|-----4-4-----4---4-4-----|
D|-14--13\---9/11--9/11--13\|-----4-4-----4---4-4-----|
A|-12--11\---7/9---7/9---11\|-----2-2-----2---2-2-----|
E|--------------------------|-------------------------|
   1 + . 2 + . 3 + . 4 + .    1 + . 2 + . 3 + . 4 + .

e|-------------------------|---------------------------|
B|-------------------------|---------------------------|
G|-7--/9-9---9-------------|-11-/13-13--13-------------|
D|-7--/9-9---9-------------|-11-/13-13--13-------------|
A|-5--/7-7---7-------------|-9--/11-11--11-------------|
E|-------------0-----0---0-|---------------0-----0---0-|
   1 + . 2 + . 3 + . 4 + .   1 + .  2 + .  3 + . 4 + .

e|--------------------------|-------------------------|
B|--------------------------|-------------------------|
G|-14--13\---9/11--9/11--9\-|-----4-4-----4---4-4-----|
D|-14--13\---9/11--9/11--9\-|-----4-4-----4---4-4-----|
A|-12--11\---7/9---7/9---7\-|-----2-2-----2---2-2-----|
E|--------------------------|-------------------------|
   1 + . 2 + . 3 + . 4 + .    1 + . 2 + . 3 + . 4 + .

e|---------------------------|----------------------------|
B|---------------------------|----------------------------|
G|-7--/9-9---9-11-/13-13--13-|-13-/14-14--14-16--18-16\---|
D|-7--/9-9---9-11-/13-13--13-|-13-/14-14--14-16--18-16\---|
A|-5--/7-7---7-9--/11-11--11-|-11-/12-12--12-14--16-14\---|
E|---------------------------|----------------------------|
   1 + . 2 + . 3 + .  4 + .    1 + .  2 + .  3 + .  4 + .

e|--------------------------|-------------------------|
B|--------------------------|-------------------------|
G|-14--13\---9/11--9/11--13\|-----4-4-----4---4-4-----|
D|-14--13\---9/11--9/11--13\|-----4-4-----4---4-4-----|
A|-12--11\---7/9---7/9---11\|-----2-2-----2---2-2-----|
E|--------------------------|-------------------------|
   1 + . 2 + . 3 + . 4 + .    1 + . 2 + . 3 + . 4 + .

e|-------------------------|---------------------------|
B|-------------------------|---------------------------|
G|-7--/9-9---9-------------|-11-/13-13--13-------------|
D|-7--/9-9---9-------------|-11-/13-13--13-------------|
A|-5--/7-7---7-------------|-9--/11-11--11-------------|
E|-------------0-----0---0-|---------------0-----0---0-|
   1 + . 2 + . 3 + . 4 + .   1 + .  2 + .  3 + . 4 + .

e|--------------------------|-------------------------|
B|--------------------------|-------------------------|
G|-14--13\---9/11--9/11--9\-|-----4-4-----4---4-4-----|
D|-14--13\---9/11--9/11--9\-|-----4-4-----4---4-4-----|
A|-12--11\---7/9---7/9---7\-|-----2-2-----2---2-2-----|
E|--------------------------|-------------------------|
   1 + . 2 + . 3 + . 4 + .    1 + . 2 + . 3 + . 4 + .

------
Chorus (8 bars)
------

  C       D                             E
Yeah,  so get a lot in just before it's   light.

  C          D                  A
Yeah, 'cause everybody wants to go.

-------
Verse 3 (20 bars)
-------

E7 A Amaj7                   C#m11
           It's the reason I like this livin'.

E7                A     Amaj7                  C#m11
   Been taking it easy again, it's too easy to like this livin'.

E7           A
If you will, devil will ride when the

Amaj7      C#m11
invitation makes you feel fly.

E7         A
   Did you ever even try when the

Amaj7         C#m11
inspiration's set to run dry?

E7         A
   Did you ever even mind when the

Amaj7        C#m11
conversation turned to a

------
Chorus (8 bars)
------

C        D                   E
lie? And everybody wants a good time.

  C       D                   A
Yeah, and everybody wants a good time, so get by.

-------
Verse 4 (18 bars)
-------

E           A7                        E          A7
World goin' mad out there. Throw away   all your treasured posessions.

             E                    A7
And even the   Royal Mail can't deliver us from what we got into.

           D       A            E              D       A            B
Guess it's bye bye baby bye bye.    Guess it's bye bye baby bye bye.

------
Ending
------

E7           A               Amaj7   C#m11
If you will, devil will ride...

Добавлено: 28.02.2012
Другие материалы по этой песне:
  • Аккорды и текст

Страница создана 28.02.2012
http://primanota.ru/gomez/devil-will-ride-chords.htm
Привет, Гость.
Предлагаем пройти революционный курс по гитаре.
Подарок от PrimaNota.Ru, забирай!