PrimaNota.ru - самый крупный в мире бесплатный архив песенных текстов, аккордов, табулатур и нот


Golden Earring - Angel Live - аккорды и текст, видео

Регистрация Запомнить меня
Войти через:  Facebook Google Twitter Vk Yandex Mail.ru

Golden Earring - Angel Live - аккорды и текст, видео

Печатать
Просмотров: 124
Angel Live
Golden Earring
-----------------------------------------------------------------------------
                                          Artist - Golden Earring
                                         *************************
                                            Song - Angel (LIVE) 
                                           *********************
                                           Album - Greatest Hits  
                                          ***********************
                                           Tabbed By - Ayreon77
                                          **********************
-----------------------------------------------------------------------------
Tuning = Standard



INTRO
******
Am       D   Am    G         D
     Oh, oh, Ohhh  fly angel fly
Em  D    Em  D          Em  D
Angggel, angggeeeellll, angggeeeeeelllllllll!


-----------------------
00:24
Em
SLIDE
******
e|---------------|---s----------------|
B|--s----s-----s-|-10\12--10---s----s-|
G|-7\9--7\9--9-\-|-----------12\-9--\-|
D|---------------|--------------------|
A|---------------|--------------------|
E|---------------|--------------------|


-----------------------
VERSE 1
********
    Em
The one time I didn't know what to do

I had a problem with my attitude
       Bm
'cos I never had, never had
    G         Em         G       Em
The young man blues, the blues before
       Em
Well I know it means none, none to you

Everyman's gotta walk in his own shoes
       Bm                                  G   Em  G  Em
And it ain't that hard, it sure is hard to see
D                 Em
Straight from the heart


-----------------------
00:59
SLIDE
******
e|---s---12----14-15-14------s---s-|
B|-10\12----12----------15-14\15-\-|
G|---------------------------------|
D|---------------------------------|
A|---------------------------------|
E|---------------------------------|


-----------------------
VERSE 2
********
  Em
I can't find nothing on my shopping list

I only keep hammerin' the nail I miss
       Bm
I just cannot help, believin',
     G  Em       G    Em
That heaven is a hard on

e|-------|
B|--s--s-|
G|-7\9-\-|
D|-------|
A|-------|
E|-------|
       Em
Well I know it don't mean a damn to you

The left hand guessin' what the right will do
    Bm
Now ain't that, ain't that, 
    G      Em       G         Em
The way it is, as a matter of fact
D                 Em
Straight from the heart

e|-----|
B|--s--|
G|-5\7-|
D|-----|
A|-----|
E|-----|


-----------------------
01:30
SLIDE
****** 
e|---------------------------s---|
B|---------------12--14-15-14\15-|
G|--s--9---9--12-----------------|
D|-7\9---9-----------------------|
A|-------------------------------|
E|-------------------------------|


-----------------------
CHORUS
*******
          C                         Am
While I'm floating like a swan on a waterbed
    G                        D
I'm drowning in a pond, in a pool of regret
    C                      Am
I'm tryin' to remember not to forget
        G                       F
How you bring me down with your kiss of death
D Em   D Em   D Em   D
Angel, angel, angel, angeeeeeellllllll

e|---s-------s---------------------|
B|-10\12---10\12-----s-------s---s-|
G|-----------------12\14---14\19-\-|
D|---------------------------------|
A|---------------------------------|
E|---------------------------------|


-----------------------
01:55
SLIDE
******
e|----------------------------|
B|-12-12------s--s------------|
G|-------12-12\11/12------s---|
D|-------------------12-12\14-|
A|----------------------------|
E|----------------------------|


-----------------------
VERSE 3
********
    Em
I'm entertaining all the Gods for you

Buddha and Jesus and the other one too
    Bm
Now ain't that, ain't that
     G     Em        G      Em
Like apple juice, forbidden fruit
                 s     s  s
e|----12-14-15-15\17-15\17\-|
B|-12-----------------------|
G|--------------------------|
D|--------------------------|
A|--------------------------|
E|--------------------------|
  Em
I moon jump, flyin' back to the sun

Cool burn visible for everyone
        Bm
And the blood flows, don't you know
G                Em       G            Em
All through your body and back to your soul

e|------|
B|-s--s-|
G|-\14/-|
D|------|
A|------|
E|------|
D                 Em
Straight from the heart
                                        s        s  s
e|-------------------|-------------12-14\17-19-14\19\-|
B|-------------------|----------12--------------------|
G|---s-------------s-|---s---12-----------------------|
D|-10\12---12-12-14\-|-12\14--------------------------|
A|-------------------|--------------------------------|
E|-------------------|--------------------------------|


-----------------------
CHORUS
*******
          C                         Am
While I'm floating like a swan on a waterbed
    G                        D
I'm drowning in a pond, in a pool of regret
    C                      Am
I'm tryin' to remember not to forget
        G                       F
How you bring me down with your kiss of death

e|--------s-----s---|
B|-12---11\12-11\12-|
G|------------------|
D|------------------|
A|------------------|
E|------------------|

D Em   D Em   D Em   D
Angel, angel, angel, angeeeeeellllllll

e|---s-------s-----s-----s-----s--s-|
B|-15\17---11\12-11\12-11\12-11\12\-|
G|----------------------------------|
D|----------------------------------|
A|----------------------------------|
E|----------------------------------|


-----------------------
02:51
SLIDE SOLO - Bm Em Am Bm G Em D
***********
     s                                             s      s     s      s                     
e|-12\14--12-14-15-14-12----------------s------|-17\19--17\19-17\19--19\17-17-15-14------s---|
B|-----------------------15-14--12-14-14\15~~~-|------------------------------------15-15\17-|
G|---------------------------------------------|---------------------------------------------|
D|---------------------------------------------|---------------------------------------------|
A|---------------------------------------------|---------------------------------------------|
E|---------------------------------------------|---------------------------------------------|

                     s
e|---------s-----19~~\-|
B|-15-17-17\19---------|
G|---------------------|
D|---------------------|
A|---------------------|
E|---------------------|


-----------------------
CHORUS
*******
          C                         Am
While I'm floating like a swan on a waterbed
    G                        D
I'm drowning in a pond, in a pool of regret
    C                      Am
I'm tryin' to remember not to forget

e|------------|
B|--s--s--s---|
G|-7\9-/-7\-5-|
D|------------|
A|------------|
E|------------|
        G                       F
How you bring me down with your kiss of death

e|--------|
B|--s--s--|
G|-5\7-/5-|
D|--------|
A|--------|
E|--------|
D Em   D Em   D Em   D Em   D
Angel, angel, angel, angel, angeeeeeellllllll
                                                   
e|-----------------------------------s-----s--s-----s-----------------s-----------------s---------|
B|-----------s---s-----s-----s--s---8\10-10\12\---14\15-15-15-15-15-14\15-15-15-15-15-14\15-15-15-|
G|--s--s----5\7-7\9---9\11-11\12\-----------------------------------------------------------------|
D|-5\7-\9-----------------------------------------------------------------------------------------|
A|------------------------------------------------------------------------------------------------|
E|------------------------------------------------------------------------------------------------|

                                s
e|---s--------s--------s------12\14------s----------------------------|
B|-14\15-15-14\15-15-14\15-15-------15-14\15---s--s--s--s----s---s--s-|
G|-------------------------------------------14/13\14/13\14--\---\14/-|
D|--------------------------------------------------------------------|
A|--------------------------------------------------------------------|
E|--------------------------------------------------------------------|



ENJOY............
Добавлено: 28.09.2015
Другие материалы по этой песне:
  • Аккорды и текст

Страница создана 28.09.2015
http://primanota.ru/golden-earring/angel-live-chords.htm
Привет, Гость.
Предлагаем пройти революционный курс по гитаре.
Подарок от PrimaNota.Ru, забирай!