PrimaNota.ru - самый крупный в мире бесплатный архив песенных текстов, аккордов, табулатур и нот


Golden Earring - Still Got The Keys Of Myfirst Caddylac - аккорды и текст, видео

Регистрация Запомнить меня
Войти через:  Facebook Google Twitter Vk Yandex Mail.ru

Golden Earring - Still Got The Keys Of Myfirst Caddylac - аккорды и текст, видео

Печатать
Просмотров: 138
Уроки эстрадного вокала в Санкт-Петербурге
Still Got The Keys Of Myfirst Caddylac
Golden Earring
GOLDEN EARRING: Still Got The Keys To My First Cadillac
Album: Tits 'N Ass

G :3-2-0-0-3-3-|
D :x-x-0-2-3-2-|
A :x-0-2-2-2-0-|
Bm:x-2-4-4-3-2-|
E :0-2-2-1-0-0-|


Riff 1

e|---------------------------------------------------------------------------------------|
B|-10b12--10-8-10--10-8-10b12--10-8-10--10b12-10-8-10--7b8b7-----------------------------|
G|-------------------------------------------------------------------------7b8b7-5-------|
D|-------------------------------------------------------------------------7b8b7--7-5-7--|
A|---------------------------------------------------------------------------------------|
E|---------------------------------------------------------------------------------------|

Riff 2

e|-13/15--13---------------------------------------------------|
B|-------------------16-13b1513--------------------------------|
G|-------------------------------------14--12--14-12-14--------|
D|----------------------------------------14-------------------|
A|-------------------------------------------------------------|
E|-------------------------------------------------------------|

Riff 3

e|-2-3-2--------------------------------------------------------|
B|--------3-2-3-2-----------------------------------------------|
G|------------------3-2-----------------------------------------|
D|-----------------------3-2-3-2--------------------------------|
A|----------------------------------3-2-------------------------|
E|----------------------------------------3-2b3b2b3b2b3---------|

Intro

G D A   G A 2x

G D A   G A en riff 1 4x


Verse
G  D       A           G          A
Inside my pocket, on a one foot chain
    G   D      A             G       A
I swear to my heart I still got the key
G        D    A         G        A
Two or three more, are just the same
G            D        A          G         A
There's only one that opens all doors for me,  yeah

Intro

G D A   G A en riff 1


Verse

Somewhere in the past a long time ago
I was pressin' my nose to a cold window
She was lookin' at me, all ready to please
Shining so pretty like a centrefold


Chorus
A                Bm         D         A
My Cadillac, my rocket-ship on four wheels
A             Bm        D       A
Promisin' me love unconditionally
A            Bm        D       A
Wherever I'd go, she'd be with me
A          Bm                 D     E
I had the blood, she had the gasoline
E
I had the blood
E
She had the gasoline

G D A   G A en riff 1 4x

Verse

Yeah we hit the road as if there'd ever been
Anything like this kinda free
She had the tunes on her radio
She taught me everything I needed to know


Chorus

That car was beautiful
That car had soul
Whenever I wanted she was ready to roll
She'd never tire, felt like Jimmy Dean
On our way to infinity
On our way to infinity


Bridge
D
Time keeps movin'
Bm
Shatterin' assumin'
         G  A
That it won't come back
G  A
Never come back

D
The memory of drivin'
Bm
Like the son of the moon
       G A           G A
and a maniac in the future and the past
D                         Bm
Still got the keys to my first Cadillac


Break

Riff 3


Chorus

My Cadillac, my rocket-ship on four wheels
Promisin' me love unconditionally
We were on the road, we were chasin' dreams
I had the blood, she had the gasoline
I had the blood
She had the gasoline


Outtro

G D A   G A en riff 1


                                         riff 2
Still got the keys to my first Cadillac
                                         riff 2
Still got the keys to my first Cadillac
                                         riff 2
Still got the keys to my first Cadillac
                                         riff 2
Still got the keys to my first Cadillac
                                         riff 2
Still got the keys to my first Cadillac
                                         riff 2
Still got the keys to my first Cadillac


G A
Добавлено: 02.08.2015
Вам также может быть интересно:
Другие материалы по этой песне:
  • Аккорды и текст

Страница создана 02.08.2015
http://primanota.ru/golden-earring/still-got-keys-of-myfirst-caddylac-chords.htm
Привет, Гость.
Предлагаем пройти революционный курс по гитаре.
Подарок от PrimaNota.Ru, забирай!