PrimaNota.ru - самый крупный в мире бесплатный архив песенных текстов, аккордов, табулатур и нот


Golden Earring - Ce Soir - аккорды и текст, видео

Регистрация Запомнить меня
Войти через:  Facebook Google Twitter Vk Yandex Mail.ru

Golden Earring - Ce Soir - аккорды и текст, видео

Печатать
Просмотров: 122
Ce Soir
Golden Earring
Song: Kill me (Ce Soir)
Artist: Golden Earring
Album: Switch
Guitarists: George Kooijmans & Barry Hay
Tuning: Standard
Tabbed by: Pini-Glock

I love this song, that's why I tabbed it. It's not that hard and sounds great in my opinion!

If you have suggestions or questions you can always leave a comment on my UG page! :)

Anyways enjoy this great song!

Cheers Nick!

Chords:     E A D G B e
Em7:        0 2 0 X X X
F#5:        2 4 0 X X X
A5:         X 0 2 0 X X

Riff 1:
e|-----------------------------------|
B|-----------------------------------|
G|-----------------------------------|
D|-----------------------------------|
A|-----3-----3--------5-----5--------|
E|--5-----5-----5--7-----7-----7--5--|

Riff 2:

e|--------------------------|
B|--------------------------|
G|--------------------------|
D|-----------------5-7-5-7--|
A|---------5--7-7-----------|
E|--5--7-7------------------|

Riff 3:

e|----------------------------|
B|----------------------------|
G|----------------------------|
D|--5-------------------------|
A|----5-----------------------|
E|------5---------------------|



Verse 1:

 Em7                         F#5
 Remember that song called "Kill me"
 A5               Em7
 From Vick Timm's last LP
 Em7
 Too much of a risk
 F#5
 For a golden disc
 A5                    Em7
 The price he paid for money

Chorus:
 Em7       F#5
 Ce soir, Ce soir
 A5                 Em7
 Assassination d'un rock 'n roll star
 Em7
 Sing your song,
 F#5          A5
 You can't go wrong
 Em7
 Attempted his business adviser
 Em7
 No need for alarm
 F#5
 You'll come to no harm
 A5                    Em7
 He didn't mention the sniper

 Em7       F#5
 Ce soir, Ce soir
 A5                 Em7
 Assassination d'un rock 'n roll star

Bridge:

Riff 1:
 The news is read, the meaning spread
Riff 2:
 One yawn, two yawn, and back to bed
Riff 1:
 Turn off the light and hold me tight
Riff 2:
 Come on maman, bend down your head
Riff 1:
 And just sing on, immortal song
Riff 2:
 Pini belle vie, bonne nuit

Riff 3:

Verse 2:
 Em7                         F#5
 Remember that song called "Kill Me"
 A5                     Em7
 A lecture on political chicanery
 Em7
 Of people's rape
 F#5
 Recorded on tape
 A5                  Em7
 Bought shame to the presidency


 Em7       F#5
 Tonight, tonight
 A5                 Em7
 One more point for human right

 Em7       F#5
 Tonight, tonight
 A5                 Em7
 One more point for human right

 Em7                 F#5
 Remember that song "Kill Me"
 A5                      Em7
 Once used by a man from Galilee
 Em7
 He had nothin' to lose
        F#5
 He was king of the Jews
 A5                   Em7
 Secured his place in history


 Em7       F#5
 Ce soir, Ce soir
 A5                 Em7
 Assassination d'un provocateur

Riff 1:
 The news is read, the meaning spread
Riff 2:
 One yawn, two yawn, and back to bed
Riff 1:
 Turn off the light and hold me tight
Riff 2:
 Come on maman, bend down your head
Riff 1:
 And just sing on, immortal song
Riff 2:
 Pini belle vie, bonne nuit

Riff 3:

 Em7
 Vick played the part,
 F#5
 With all his heart
 A5                     Em7
 He wasn't prepared for the shock
 Em7
 When howling lead
 F#5
 Bit into his head
 A5                   Em7
 A new martyr for the book of rock

SOLO: Keep the Em7 - F#5 - A5 - Em7 up or play 
something like this.

e|-------------10^10------------------------------------------------------------|
B|----------8---------8--10^10--8--10^10--8-------------------------------------|
G|--7^7--9-----------------------------------9----------------------------------|
D|------------------------------------------------------------------------------|
A|------------------------------------------------------------------------------|
E|------------------------------------------------------------------------------|

 Em7       F#5
 Ce soir, Ce soir
 A5                 Em7
 Assassination d'un rock 'n roll star
Добавлено: 02.08.2015
Другие материалы по этой песне:
  • Аккорды и текст

Страница создана 02.08.2015
http://primanota.ru/golden-earring/ce-soir-chords.htm
Привет, Гость.
Предлагаем пройти революционный курс по гитаре.
Подарок от PrimaNota.Ru, забирай!