PrimaNota.ru - самый крупный в мире бесплатный архив песенных текстов, аккордов, табулатур и нот


Godsmack - What If - текст песни, таба, бас-таба, видео

Регистрация Запомнить меня
Войти через:  Facebook Google Twitter Vk Yandex Mail.ru

Godsmack - What If - текст песни, таба, бас-таба, видео

Печатать
Просмотров: 247
Title: What If
Artist: Godsmack
Album: The Oracle

-----------------
I already have a Guitar Pro version pretty much done,
so give me a couple of days. mmk? :) EDIT: SUBMITTED!!!

*********************************************
Check out jjhand's tabs on Ultimate Guitar. 
They're pretty much perfect every time. :)

http://profile.ultimate-guitar.com/jjhand/
*********************************************


INTRO 1:


0:14
e|-----------------|
b|-----------------|
g|-----------------|
d|--0~~~-----------|
a|-----------------|
D|-----------------|

0:21
e|--5~~-----------------------------------|
b|--6~~------3-5b(5)--------3-5b(5)-------|
g|--7~~------------------------------5~---|
d|--7~~-----------------------------------|
a|--5~~-----------------------------------|
D|----------------------------------------|

                   0:39
e|--------------------------|
b|-------------------10-----|
g|-----------------7--------|
d|-0~~~---------------------|
a|-0~~~---------------------|
D|-0~~~---------------------|


e|---------------------------------------|
b|-5b---5b---5b---5b---5b---5b-----------|
g|----7----7----7----7----7--------------|
d|----------------------------------0~~--|
a|----------------------------------0~~--|
D|----------------------------------0~~--|


e|--------------------------|
b|--------------------------|
g|--------------------------| X8
d|--------------------------|
a|--------------------------|
D|---13-12-0-15-0-0-7-0-----|
p.m ..................


INTRO 2:


e|---------------------------------------------|
b|---------------------------------------------|
g|---------------------------------------------| 
d|---------------------------------------------|
a|---------------------------------------------|
D|---13-12-0-15-0-0-7-0----13-12-0-15-0-0-7-0--|

e|---------------------------------------------|
b|---------------------------------------------|
g|---------------------------------------------| 
d|---------------------------------------------|
a|---------------------------------------------|
D|---13-12-0-15-0-0-7-0----13-12-0-15-0-0-7-0--|


e|-----------------------------|
b|-----------------------------|
g|-------10------------12------|
d|-8--8--8-----10--10--10------|
a|-8--8--------10--10----------|
D|-8--8--------10--10----------|


e|---------------------------------------------|
b|---------------------------------------------|
g|---------------------------------------------| 
d|---------------------------------------------|
a|---------------------------------------------|
D|---13-12-0-15-0-0-7-0----13-12-0-15-0-0-7-0--|

e|---------------------------------------------|
b|---------------------------------------------|
g|---------------------------------------------| 
d|---------------------------------------------|
a|---------------------------------------------|
D|---13-12-0-15-0-0-7-0----13-12-0-15-0-0-7-0--|


e|--------------------------|
b|--------------------------|
g|-------10----------9------|
d|-8--8--8-----7--7--7------|
a|-8--8--------7--7---------|
D|-8--8--------7--7---------|

e|------------------------|
b|------------------------|
g|------------------------|
d|-0~~~-------------------|
a|-0~~~-------------------|
D|-0~~~-------------------|



Verse 1:


e|------------------------------------------------------|
b|--------------------3---------------------------------|
g|-----5----------3-------5-----------------5-----------|
d|---3----------5-------------------5-----------3-------|
a|-5----------3------------------3------5---------------|
D|------------------------------------------------------|

e|---------------------------------------------------------------|
b|---------------6----6-5----------------------------------------|
g|-------------5------5-5-------------5---------------5----------|
d|-----------3-----------------------------3-------------3-------|
a|---------5------------------------------------5----------5-----|
D|-0~~~~---------------------------------------------------------|

e|-----------------10----10~~~~~---------------------------------|
b|--------------13----------13~~------13---------------13--------|
g|---------------------------------------------------------------|
d|-----------0-----------------------------12---10--------10-----|
a|---------0-----------------------------------------------------|
D|-0~~~~-0-------------------------------------------------------|

e|---------------------------------------------------------------|
b|---------------6----6-5----------------------------------------|
g|-------------5------5-5-------------5---------------5----------|
d|-----------3-----------------------------3-------------3-------|
a|---------5------------------------------------5----------5-----|
D|-0~~~~---------------------------------------------------------|

BREAK:

e|---------------------------------------------|
b|---------------------------------------------|
g|---------------------------------------------| 
d|---------------------------------------------|
a|---------------------------------------------|
D|---13-12-0-15-0-0-7-0----13-12-0-15-0-0-7-0--|

e|---------------------------------------------|
b|---------------------------------------------|
g|---------------------------------------------| 
d|---------------------------------------------|
a|---------------------------------------------|
D|---13-12-0-15-0-0-7-0----13-12-0-15-0-0-7-0--|


e|--------------------------|
b|--------------------------|
g|-------10----------9------|
d|-8--8--8-----7--7--7------|
a|-8--8--------7--7---------|
D|-8--8--------7--7---------|


VERSE 2:
The last few notes are the only things different from
the first verse.


e|------------------------------------------------------|
b|--------------------3---------------------------------|
g|-----5----------3-------5-----------------5-----------|
d|---3----------5-------------------5-----------3-------|
a|-5----------3------------------3------5---------------|
D|------------------------------------------------------|

e|---------------------------------------------------------------|
b|---------------6----6-5----------------------------------------|
g|-------------5------5-5-------------5----------------5---------|
d|-----------3-----------------------------3-------------3-------|
a|---------5------------------------------------5----------5-----|
D|-0~~~~---------------------------------------------------------|

e|-----------------10----10~~~~~---------------------------------|
b|--------------13----------13~~------13---------------13--------|
g|---------------------------------------------------------------|
d|-----------0-----------------------------12---10--------10-----|
a|---------0-----------------------------------------------------|
D|-0~~~~-0-------------------------------------------------------|

e|---------------------------------------------------------------|
b|---------------6----6-5----------------------------------------|
g|-------------5------5-5-------------7---------------7----------|
d|-----------3-----------------------------5-------------5-------|
a|---------5------------------------------------7----------------|
D|-0~~~~---------------------------------------------------------|

Chorus:
(It turns to silence................a silence sometimes I can hear)
e|-----------------------------------------------------------|
b|-----------------------------------------------------------|
g|-----------------------------------------------------------|
d|-5---5---5---5---5-5050----------5---5---5---5---5-5555----|
a|-5---5---5---5---5-5050----------5---5---5---5---5-5555----|
D|-5---5---5---5---5-5050----------5---5---5---5---5-5555----|

e|---------------------------------------------|
b|---------------------------------------------|
g|---------------------------------------------| 
d|---------------------------------------------|
a|---------------------------------------------|
D|---13-12-0-15-0-0-7-0----13-12-0-15-0-0-7-0--|

(Internal violence...............a struggle deep within, what if!)
e|--------------------------------------------------------------|
b|--------------------------------------------------------------|
g|--------------------------------------------------------------|
d|-5---5---5---5---5-5050----------8---8---10--10---10-10-10----|
a|-5---5---5---5---5-5050----------8---8---10--10---10-10-10----|
D|-5---5---5---5---5-5050----------8---8---10--10---10-10-10----|


e|---------------------------------------------|
b|---------------------------------------------|
g|---------------------------------------------|
d|---------------------------------------------|
a|---------------------------------------------|
D|---13-12-0-15-0-0-7-0----13-12-0-15-0-0-7-0--|
                                                    

e|-----------------------------|                            
b|-----------------------------|
g|-------10------------12------|
d|-8--8--8-----10--10--10------|------------------------------|
a|-8--8--------10--10----------|                              |
D|-8--8--------10--10----------|                              |
                                                              |
                                                             x2
                                                              |
e|---------------------------------------------|              |
b|---------------------------------------------|              |
g|---------------------------------------------|              |
d|---------------------------------------------|--------------|
a|---------------------------------------------|
D|---13-12-0-15-0-0-7-0----13-12-0-15-0-0-7-0--|


e|--------------------------|
b|--------------------------|
g|-------10----------9------|
d|-8--8--8-----7--7--7------|
a|-8--8--------7--7---------|
D|-8--8--------7--7---------|


VERSE 3:

e|------------------------------------------------------|
b|--------------------3---------------------------------|
g|-----5----------3-------5-----------------5-----------|
d|---3----------5-------------------5-----------3-------|
a|-5----------3------------------3------5---------------|
D|------------------------------------------------------|

e|-----------------------------------|
b|-----------------------------------|
g|-----------------------------------|
d|-----------------------------------|x2
a|-----------------------------------|
D|-0-0-0-0-0-0-0-0-0-0-0-0-0-0-0-0---|
pm.....................................



CHORUS 3:

(It turns to silence................a silence sometimes I can hear)
e|-----------------------------------------------------------|
b|-----------------------------------------------------------|
g|-----------------------------------------------------------|
d|-5---5---5---5---5-5050----------5---5---5---5---5-5555----|
a|-5---5---5---5---5-5050----------5---5---5---5---5-5555----|
D|-5---5---5---5---5-5050----------5---5---5---5---5-5555----|

e|---------------------------------------------|
b|---------------------------------------------|
g|---------------------------------------------| 
d|---------------------------------------------|
a|---------------------------------------------|
D|---13-12-0-15-0-0-7-0----13-12-0-15-0-0-7-0--|

(Internal violence...............a struggle deep within, what if!)
e|--------------------------------------------------------------|
b|--------------------------------------------------------------|
g|--------------------------------------------------------------|
d|-5---5---5---5---5-5050----------8---8---10--10---10-10-10----|
a|-5---5---5---5---5-5050----------8---8---10--10---10-10-10----|
D|-5---5---5---5---5-5050----------8---8---10--10---10-10-10----|


e|---------------------------------------------|
b|---------------------------------------------|
g|---------------------------------------------|
d|---------------------------------------------|
a|---------------------------------------------|
D|---13-12-0-15-0-0-7-0----13-12-0-15-0-0-7-0--|


e|-----------------------------|                            
b|-----------------------------|
g|-------10------------12------|
d|-8--8--8-----10--10--10------|------------------------------|
a|-8--8--------10--10----------|                              |
D|-8--8--------10--10----------|                              |
                                                              |
                                                             x3
                                                              |
e|---------------------------------------------|              |
b|---------------------------------------------|              |
g|---------------------------------------------|              |
d|---------------------------------------------|--------------|
a|---------------------------------------------|
D|---13-12-0-15-0-0-7-0----13-12-0-15-0-0-7-0--|


         WHAT IF!               WHAT IF!
e|---------------------------------------------|
b|---------------------------------------------|
g|---------------------------------------------|x2
d|---------------------------------------------|
a|---------------------------------------------|
D|---13-12-0-15-0-0-7-0----13-12-0-15-0-0-7-0--|


Solo Part 1:
4:53

NOTE: The bends are 1/4.
e|--13-------------------------------|
b|------10\---------7b-7b------------|
g|-------------5h7---------7p5h7-----|
d|-----------------------------------|
a|-----------------------------------|
D|-----------------------------------|

e|--13----------------------------------|
b|------10\---------7b-7b---------------|
g|-------------5h7---------7p5-10p7-----|
d|--------------------------------------|
a|--------------------------------------|
D|--------------------------------------|

e|--13----------13----------------------|
b|------10---------10----9b-------------|
g|-----------------------------10p7-----|
d|--------------------------------------|
a|--------------------------------------|
D|--------------------------------------|

NOTE: The 15th fret bend here is a full bend.

e|--13------13-----13-----13------13-15b--13p10---------|
b|-----10-----10-----10------10-------------------------|
g|------------------------------------------------------|
d|------------------------------------------------------|
a|------------------------------------------------------|
D|------------------------------------------------------|

Solo Part 2:


e|--------------------------|--------------------8- |
b|----10-------8b10r8-------|---10-------8--------- |
g|--7-----10-9--------10-9--|-7------10------9----- |
d|--------------------------|---------------------- |
a|--------------------------|---------------------- |
D|--------------------------|---------------------- |

e|--------------------------|-------------------------- |
b|----10-------8b10r8-------|---10-------13---13--13--- |
g|--7------10---------10-9--|-7------10----10---10----- |
d|--------------------------|-------------------------- |
a|--------------------------|-------------------------- |
D|--------------------------|-------------------------- | 


CHORUS 4: Same as Chorus 3!

SOLO over final Chorus:

e|-12b---10-------12b---10v~~~----10v~~~-------|
b|---------------------------------------------|
g|---------------------------------------------|
d|---------------------------------------------|
a|---------------------------------------------|
D|---------------------------------------------|

NOTE: bend the 15th fret note to reach the 17th fret note

e|-15b---10-------15b---17p15p13--17p15p13--17p15p13--17p15p13---|
b|---------------------------------------------------------------|
g|---------------------------------------------------------------|
d|---------------------------------------------------------------|
a|---------------------------------------------------------------|
D|---------------------------------------------------------------|
Добавлено: 26.02.2012
Другие материалы по этой песне:

Страница создана 23.02.2012
http://primanota.ru/godsmack/what-if-chords.htm
Привет, Гость.
Предлагаем пройти революционный курс по гитаре.
Подарок от PrimaNota.Ru, забирай!