PrimaNota.ru - самый крупный в мире бесплатный архив песенных текстов, аккордов, табулатур и нот


Godsmack - Whiskey Hangover - текст песни, таба, бас-таба, видео

Регистрация Запомнить меня
Войти через:  Facebook Google Twitter Vk Yandex Mail.ru

Godsmack - Whiskey Hangover - текст песни, таба, бас-таба, видео

Печатать
Просмотров: 424
Godsmack-Whiskey Hangover
Guitar Tab
Drop D Tuning (D, A, D, G, B, E)
Tabbed By Ryan Ryngaert
Please Rate Or Comment

Intro                    x4   hold
E----------------------------|---|
B----------------------------|---|
G---7-------10-----7---8-8-8-|-7-|
D-0-7-0-0-0-10-0-0-7-0-8-8-8-|-7-|
A-0-5-0-0-0-8--0-0-5-0-6-6-6-|-5-|
D-0---0-0-0----0-0---0-------|---|

Verse        x3
E--------------|
B--------------|
G--------------|
D------8-8-8-7-|(hold)
A------6-6-6-5-|(hold)
D--------------|

Chorus                    x4  hold
E----------------------------|---|
B----------------------------|---|
G---7-------10-----7---8-8-8-|-7-|
D-0-7-0-0-0-10-0-0-7-0-8-8-8-|-7-|
A-0-5-0-0-0-8--0-0-5-0-6-6-6-|-5-|
D-0---0-0-0----0-0---0-------|---|


Verse        x3
E--------------|
B--------------|
G--------------|
D------8-8-8-7-|(hold)
A------6-6-6-5-|(hold)
D--------------|

Pre-Chorus                      x1
E---------------------------------|
B---------------------------------|
G---------------------------------|
D-5-5-5-5-5-5-5-5-3-3-3-3-3-3-3-3-|
A-3-3-3-3-3-3-3-3-1-1-1-1-1-1-1-1-|
D---------------------------------|

E----------------------------|
B----------------------------|
G---7-------10-----7---8-8-8-|
D-0-7-0-0-0-10-0-0-7-0-8-8-8-|
A-0-5-0-0-0-8--0-0-5-0-6-6-6-|
D-0---0-0-0----0-0---0-------|

E---------------------------------|
B---------------------------------|
G---------------------------------|
D-5-5-5-5-5-5-5-5-3-3-3-3-3-3-3-3-|
A-3-3-3-3-3-3-3-3-1-1-1-1-1-1-1-1-|
D---------------------------------|

Chorus (play twice)       x4  hold
E----------------------------|---|
B----------------------------|---|
G---7-------10-----7---8-8-8-|-7-|
D-0-7-0-0-0-10-0-0-7-0-8-8-8-|-7-|
A-0-5-0-0-0-8--0-0-5-0-6-6-6-|-5-|
D-0---0-0-0----0-0---0-------|---|


Bridge                                                       x2
E--------------------------------------------------------------|
B--------------------------------------------------------------|
G--------------------------------------------------------------|
D-7---7-7---7-7---7-7-7---7-7---7-9-7--7---7-7---7-7-3-2-3-2-1-|
A-5---5-5---5-5---5-5-5---5-5---5-7-5--5---5-5---5-5-1-0-3-2-1-|
D---0-----0-----0-------0-----0----------0-----0---------3-2-1-|

E---------------------------------|
B---------------------------------|
G---------------------------------|
D-5-5-5-5-5-5-5-5-3-3-3-3-3-3-3-3-|
A-3-3-3-3-3-3-3-3-1-1-1-1-1-1-1-1-|
D---------------------------------|


Chorus (play twice)       x4  hold
E----------------------------|---|
B----------------------------|---|
G---7-------10-----7---8-8-8-|-7-|
D-0-7-0-0-0-10-0-0-7-0-8-8-8-|-7-|
A-0-5-0-0-0-8--0-0-5-0-6-6-6-|-5-|
D-0---0-0-0----0-0---0-------|---|

Ending                  x4    hold
E----------------------------|---|
B----------------------------|---|
G---7-------10-----7---8-8-8-|-7-|
D-0-7-0-0-0-10-0-0-7-0-8-8-8-|-7-|
A-0-5-0-0-0-8--0-0-5-0-6-6-6-|-5-|
D-0---0-0-0----0-0---0-------|---|

Well, that is the full song. I hope it's right, if not leave a comment and I'll update 
if needed. Thank you, and please rate.
Добавлено: 22.05.2012
Другие материалы по этой песне:

Страница создана 21.02.2012
http://primanota.ru/godsmack/whiskey-hangover-chords.htm
Привет, Гость.
Предлагаем пройти революционный курс по гитаре.
Подарок от PrimaNota.Ru, забирай!