PrimaNota.ru - самый крупный в мире бесплатный архив песенных текстов, аккордов, табулатур и нот


Godsmack - Love-hate-sex-pain - текст песни, таба, бас-таба, видео

Регистрация Запомнить меня
Войти через:  Facebook Google Twitter Vk Yandex Mail.ru

Godsmack - Love-hate-sex-pain - текст песни, таба, бас-таба, видео

Печатать
Просмотров: 1333
Godsmack
"Love-Hate-Sex-Pain"
(Low to High) DADGBE


h      hammer on
p      pull off
PM     palm muting
x      muffled strings
v      vibrato
br     bend release


Intro/Chorus (x2)
e[--------------------------------------------------------|
B[--------------------------------------------------------|
G[--2-------------------2---------------------------------|
D[----3----2h3-2h3p2------3----2h3 2h3p2------------------|
A[--------------------------------------------------------|
D[0-----00------------0-----00----------------------------|
        PM                  PM


e[--------------------------------------------------------|
B[--------------------------------------------------------|
G[--------------------------------------------------------|
D[--6-------------------6---------------------------------|
A[----7----5h7-5h7-7------7----5h7-7h8p7p5----------------|
D[0-----00------------0-----00----------------------------|
        PM                  PM


Verse (x3)
e[--------------------------------------------------------|
B[---3---3----3---3---------------------------------------|
G[---2---2----2---2---------------------------------------|
D[-0-0---0-0--0-0-0--222222222/333/55---------------------|
A[-0-0-0-0-0--0-0-0--222222222/333/55---------------------|
D[-0-0-0-0-0--0-0-0--222222222/333/55---------------------|

e[--------------------------------------------------------|
B[---3---3----3---3---------------------------------------|
G[---2---2----2---2---------------------------------------|
D[-0-0---0-0--0-0-0--222222222/888-77---------------------|
A[-0-0-0-0-0--0-0-0--222222222/888-77---------------------|
D[-0-0-0-0-0--0-0-0--222222222/888-77---------------------|

Bridge Riff 1 (x2) (Don't you worry please)

e[-----------------------------------------|
B[-----------------------------------------|
G[-----------------------------------------|
D[8888888777777----------------------------|
A[8888888777777----------------------------|
D[8888888777777----------------------------|

Bridge Riff 2 (x2) (Because I slowly)
e[-----------------------------------------|
B[--33--33---------------------------------|
G[--22--22---------------------------------|
D[00000000-333333/888888-777777------------|
A[00000000-333333/888888-777777------------|
D[00000000-333333/888888-777777------------|

  Solo (w/ Wah)
e[----------------------------------------------------|
B[---10--------------10---------------9--9--9-9--9--9-|
G[-----10---9h10p9v-----10---9h10p9v---9--9----9--9---|
D[(0)-----0--------0------0----------0--0--0-0--0--0--|
A[----------------------------------------------------|
D[----------------------------------------------------|


e[---------------------------10-----------------------------------|
B[---10-----------10-------10---13b-13p10-------------------------|
G[-----10--9h10p9----10--12b---------------12v-10-9v---------9br--|
D[(0)-----0------0----------------------------------10-9v-10------|
A[----------------------------------------------------------------|
D[----------------------------------------------------------------|


Intro  2x
Verse  3x
Chorus 2x
Verse  3x
Chorus 2x
Bridge Riff 1 2x
Bridge Riff 2 2x
Solo
Chorus 3x
Outro 3x Fade to piano
Добавлено: 16.05.2012
Другие материалы по этой песне:

Страница создана 20.03.2012
http://primanota.ru/godsmack/love-hate-sex-pain-chords.htm
Привет, Гость.
Предлагаем пройти революционный курс по гитаре.
Подарок от PrimaNota.Ru, забирай!