PrimaNota.ru - самый крупный в мире бесплатный архив песенных текстов, аккордов, табулатур и нот


Glen Campbell - Angels In The Sky - бас-таба, видео

Регистрация Запомнить меня
Войти через:  Facebook Google Twitter Vk Yandex Mail.ru

Glen Campbell - Angels In The Sky - бас-таба, видео

Печатать
Просмотров: 39
Уроки эстрадного вокала в Санкт-Петербурге
Авторы: Dick Glasser

Tabbed by: 6METAL6BASSIST6
E-mail: petergriffinav@gmail.com

Tuning: EADG

G|------------------------------------------------------------------------------------------------|
D|------------------------8-----------------------------------------------8-----------------------|
A|6-----------------------------------------------6-----------------------------------------------|
E|------------------------------------------------------------------------------------------------|

0:08

G|------------------------------------------------------------------------------------------------|
D|--------------------8---10----------------------------------------------8-----------------------|
A|6-----------------------------------------------8-------------------8-----------------------8---|
E|------------------------------------------------------------------------------------------------|

G|------------------------------------------------------------------------------------------------|
D|--------------------8---10----------------------------------------------8-----------6-----------|
A|6-------------------------------------------10--8-------------------8-------------------8---7---|
E|------------------------------------------------------------------------------------------------|

0:22

G|------------------------------------------------------------------------------------------------|
D|------------------------------------------------6-------------------6---6-------------------6---|
A|6-------------------6---6-------------------6---------------------------------------------------|
E|------------------------------------------------------------------------------------------------|

G|------------------------------------------------------------------------------------------------|
D|------------------------8-------------------8---------------------------------------------------|
A|6-------------------6---------------------------6-------------------6---6-----------6-------\---|
E|------------------------------------------------------------------------------------------------|

0:35

G|------------------------------------------------------------------------------------------------|
D|------------------------5-------------------5---6-------------------6-----------------------5---|
A|3-------------------3---------------------------------------------------6-----------6---8-------|
E|------------------------------------------------------------------------------------------------|

G|------------------------------------------------------------------------------------------------|
D|6-------------------6---------------------------------------------------------------------------|
A|------------------------6-------------------6---8-------------------8---8-----------8-----------|
E|------------------------------------------------------------------------------------------------|

G|------------------------------------------------|
D|8-------------------8---------------8-----------|
A|------------------------8-----------------------|
E|------------------------------------------------|

0:53

G|------------------------------------------------------------------------------------------------|
D|--------------------8---10----------------------------------------------8---------------6-------|
A|6-------------------------------------------10--8-------------------8-----------------------8---|
E|------------------------------------------------------------------------------------------------|

G|------------------------------------------------------------------------------------------------|
D|--------------------8---10------------------10--------------------------8-----------6/8---------|
A|6-----------------------------------------------8-------------------8---------------------------|
E|------------------------------------------------------------------------------------------------|

1:07

G|------------------------------------------------------------------------------------------------|
D|------------------------------------------------6-------------------6---6-------------------6---|
A|6-------------------6---6-------------------6---------------------------------------------------|
E|------------------------------------------------------------------------------------------------|

G|------------------------------------------------------------------------------------------------|
D|------------------------8-------------------------------------------8---9-----------9-----------|
A|6-------------------6---------------------------6---------------------------------------9---8---|
E|------------------------------------------------------------------------------------------------|

1:20

G|------------------------------------------------------------------------------------------------|
D|--------------------9---11----------------------------------------------9-----------9-----------|
A|7-------------------------------------------11--9-------------------9-------------------9---8---|
E|------------------------------------------------------------------------------------------------|

G|------------------------------------------------------------------------------------------------|
D|--------------------9---11------------------11--------------------------9-----------9-----------|
A|7-----------------------------------------------9-------------------9---------------------------|
E|------------------------------------------------------------------------------------------------|

1:34

G|------------------------------------------------------------------------------------------------|
D|------------------------------------------------7-------------------7---7-------------------7---|
A|7-------------------7---7-------------------7---------------------------------------------------|
E|------------------------------------------------------------------------------------------------|

G|------------------------------------------------------------------------------------------------|
D|------------------------9-------------------9---------------------------------------------------|
A|7-------------------7---------------------------7-------------------7---7-----------7-----------|
E|------------------------------------------------------------------------------------------------|

1:48

G|------------------------------------------------------------------------------------------------|
D|------------------------6-------------------6---7-------------------7-----------------------6---|
A|4-------------------4---------------------------------------------------7-----------7---9-------|
E|------------------------------------------------------------------------------------------------|

G|------------------------------------------------------------------------------------------------|
D|7-------------------7---------------9-----------------------------------------------------------|
A|------------------------7---------------7---8---9-------------------9---9-----------9-----------|
E|------------------------------------------------------------------------------------------------|

G|------------------------------------------------|
D|9-----------9-----------------------9-----------|
A|------------------------9-----------------------|
E|------------------------------------------------|

2:05

G|------------------------------------------------------------------------------------------------|
D|--------------------9---11------------------11--------------------------9-------7-----------9---|
A|7-----------------------------------------------9-------------------9---------------9-----------|
E|------------------------------------------------------------------------------------------------|

G|------------------------------------------------------------------------------------------------|
D|--------------------9---11------------------11--------------------------9-----------9-------9---|
A|7-----------------------------------------------9-----------9---------------------------9-------|
E|------------------------------------------------------------------------------------------------|

2:19

G|------------------------------------------------------------------------------------------------|
D|------------------------------------------------7-------------------7---7-------------------7---|
A|7-------------------7---7-------------------7---------------------------------------------------|
E|------------------------------------------------------------------------------------------------|

G|------------------------------------------------------------------------------------------------|
D|------------------------9-------------------9---------------------------9-------------------9---|
A|7-------------------7---------------------------7-------------------7---------------------------|
E|------------------------------------------------------------------------------------------------|

G|------------------------------------------------------------------------------------------------|
D|----------------------------9-------------------------------------------------------------------|
A|7-------------------------------------------------------------------7---------------------------|
E|------------------------------------------------------------------------------------------------|
Добавлено: 24.10.2017
Другие материалы по этой песне:
  • Аккорды и текст

Страница создана 24.10.2017
http://primanota.ru/glen-campbell/angels-in-sky-chords.htm
Привет, Гость.
Предлагаем пройти революционный курс по гитаре.
Подарок от PrimaNota.Ru, забирай!