PrimaNota.ru - самый крупный в мире бесплатный архив песенных текстов, аккордов, табулатур и нот


Gerry & The Pacemakers - Shot Of Rhythm And Blues - бас-таба, видео

Регистрация Запомнить меня
Войти через:  Facebook Google Twitter Vk Yandex Mail.ru

Gerry & The Pacemakers - Shot Of Rhythm And Blues - бас-таба, видео

Печатать
Просмотров: 111
Авторы музыки: Terry Thompson
Авторы текста: Terry Thompson
Shot Of Rhythm And Blues
Gerry And The Pacemakers
Written by Terry Thompson; released on the album "How Do You Like It?"

Intro:
G|------- ------- ------- -------|------- ------- ------- -------|
D|-------------------------------|-------------------------------|
A|-------------------------------|-------------------------------|
E|-------------------------------|-------------------------------|
                      Let's have a little bit of  rhythm,     woo!


G|------- ------- ------- -------|------- ------- ------- -------|
D|-------------------------------|-------------------------------|
A|-------------------------------|-------------------------------|
E|-------------------------------|-------------------------------|
                                                          And a


G|------- ------- ------- -------|------- ------- ------- -------|
D|-------------------------------|-------------------------------|
A|-------------------------------|-------------------------------|
E|-------------------------------|-------------------------------|
  little bit of   blues   now!


G|------- ------- ------- -------|------- ------- ------- -------|
D|-------------------------------|-------------------------------|
A|-------------------------------|-------------------------------|
E|-------------------------------|-------------------------------|
                                      And now the swin -  gin' bass


G|------- ------- ------- -------|------- ------- ------- -------|
D|-------------------------------|----------------14\------------|
A|-------------------------------|-------------------------------|
E|-------------------------------|-------------------------------|
          guitar      one     time!


G|------- ------- ------- -------|------- ------- ------- -------|
D|-------------------------------|-------------------------------|
A|7-----------7---------------6--|7-----------7---------------6--|
E|----------------7-------9------|----------------7---7---9------|
                      And then    got     all     rhythm  and blues.
                              you've

G|------- ------- ------- -------|------- ------- ------- -------|
D|-------------------------------|-------------------------------|
A|7-----------7------------------|7---------------------------6--|
E|----------------7--------------|----7---7---7---7---7---9------|
                                                      So  if  your

Verse:
G|------- ------- ------- -------|------- ------- ------- -------|
D|-------------------------------|-------------------------------|
A|7-----------7---------------6--|7-----------7---------------6--|
E|----------------7-------7------|----------------7---7---9------|
  hands   start a-clappin',       fingers start a-poppin',    your


G|------- ------- ------- -------|------- ------- ------- -------|
D|-------------------------------|-------------------------------|
A|7-----------7---------------6--|7---7---5---5---4---4----------|
E|----------------7-------7------|------------------------7------|
  feet    start   movin'  a - round,                  And if  you


G|------- ------- ------- -------|------- ------- ------- -------|
D|-------------------------------|-------------------------------|
A|----------------7-----------7--|----------------7--------------|
E|5-----------5------------------|5-----------5-----------5---5--|
  start   swing   sway   when the band    starts to play
      to      and

G|------- ------- ------- -------|------- ------- ------- -------|
D|-------------------------------|-------------------------------|
A|7---------------------------6--|7-----------7-----------7---7--|
E|----------------7-------9------|----------------7--------------|
  real    cool    way out     sounds,                 And if  you


G|------- ------- ------- -------|------- ------- ------- -------|
D|-------------------------------|-------------------------------|
A|----------------9--------------|----------------7--------------|
E|7------------------------------|5-----------------------5------|
  get to  can't   help it when you can't  sit down,


G|------- ------- ------- -------|------- ------- ------- -------|
D|-------------------------------|-------------------------------|
A|----------------9-------9------|----------------7-------7---7--|
E|7-----------7------------------|5------------------------------|
  feel    like    got to  move a- round,
              you've
Refrain:
G|------- ------- ------- -------|------- ------- ------- -------|
D|-------------------------------|-------------------------------|
A|----------------7-------7---7--|----------------7--------------|
E|5------------------------------|5-----------------------5------|
  Need a  shot of rhythm  and blues   with just a little rock and


G|------- ------- ------- -------|------- ------- ------- -------|
D|-------------------------------|-------------------------------|
A|7-----------7---------------6--|7-----------7-----------7------|
E|----------------7-------9------|----------------7-----------7--|
  roll    on  the side,       just    for good    mea  -  sure,


G|------- ------- ------- -------|------- ------- ------- -------|
D|-------------------------------|-------------------------------|
A|----------------7-------7------|----------------7--------------|
E|5------------------------------|5-----------------------5------|
  Need a  pair of dancin'     shoes,      with your lover by  your


G|------- ------- ------- -------|------- ------- ------- -------|
D|-------------------------------|-------------------------------|
A|-------------------------------|----------------------------6--|
E|7-----------7-----------7------|7---7---7---7---7---7---9------|
  side,   don't know you're gonna have a lot of pleasure. Don't you
              you
Verse:
G|------- ------- ------- -------|------- ------- ------- -------|
D|-------------------------------|-------------------------------|
A|7-----------7-----------7------|----------------7--------------|
E|----------------7-----------7--|5-----------5-----------5------|
  worry  'bout a  thing,          start   dance   sing,       and
                                      to      and

G|------- ------- ------- -------|------- ------- ------- -------|
D|-------------------------------|-------------------------------|
A|7-----------7---------------6--|7-----------7-----------7------|
E|----------------7---7---9------|----------------7--------------|
  chills  don't   up  on      you,                    And when the
              come

G|------- ------- ------- -------|------- ------- ------- -------|
D|-------------------------------|-------------------------------|
A|----------------7-------7---7--|----------------7--------------|
E|5------------------------------|5-----------5-----------5------|
  rhythm  finally gets you and the beat   hits you too,


G|------- ------- ------- -------|------- ------- ------- -------|
D|-------------------------------|-------------------------------|
A|----------------9-------9------|7---7---5---5---4---4----------|
E|7------------------------------|------------------------7---7--|
  here's  thing   you to      do.     Come    on,         hey!
      a       for
Refrain (solo):
G|------- ------- ------- -------|------- ------- ------- -------|
D|-------------------------------|-------------------------------|
A|----------------7-------7---7--|----------------7--------------|
E|5-----------5------------------|5-----------------------5------|



G|------- ------- ------- -------|------- ------- ------- -------|
D|-------------------------------|-------------------------------|
A|7-----------7---------------6--|7-------7---7-----------7------|
E|----------------7-------9------|----------------7-----------7--|



G|------- ------- ------- -------|------- ------- ------- -------|
D|-------------------------------|-------------------------------|
A|----------------7-------7---7--|----------------7--------------|
E|5-----------5------------------|5-----------5-----------5------|



G|------- ------- ------- -------|------- ------- ------- -------|
D|-------------------------------|-------------------------------|
A|-------------------------------|-------------------------------|
E|7-----------7-------7---7---7--|7---7---7---7---7---7---7------|
                                                              I

Refrain:
G|------- ------- ------- -------|------- ------- ------- -------|
D|-------------------------------|-------------------------------|
A|----------------7-----------7--|----------------7--------------|
E|5------------------------------|5-----------------------5------|
  Need a  shot of rhythm  and blues   with just a little rock and


G|------- ------- ------- -------|------- ------- ------- -------|
D|-------------------------------|-------------------------------|
A|7-----------7---------------6--|7-----------7-----------7------|
E|----------------7-------9------|----------------7-----------7--|
  roll    on  the side,       just    for good    mea  -  sure,


G|------- ------- ------- -------|------- ------- ------- -------|
D|-------------------------------|-------------------------------|
A|----------------7-------7---7--|----------------7--------------|
E|5------------------------------|5-----------------------5------|
  Need a  pair of dancin'     shoes,      with your lover by  your


G|------- ------- ------- -------|------- ------- ------- -------|
D|-------------------------------|-------------------------------|
A|-------------------------------|----------------------------6--|
E|7-----------7-----------7------|7---7---7---7---7---7---9------|
  side,   don't know you're gonna have a lot of pleasure. Don't you
              you
Verse:
G|------- ------- ------- -------|------- ------- ------- -------|
D|-------------------------------|-------------------------------|
A|7-----------7-----------7------|----------------7--------------|
E|----------------7---7-------7--|5-----------5-----------5------|
  worry  'bout a  thing,          start   dance   sing,       and
                                      to      and

G|------- ------- ------- -------|------- ------- ------- -------|
D|-------------------------------|-------------------------------|
A|7-----------7------------------|7-----------7-----------7------|
E|----------------7-----------7--|----------------7---7-------7--|
  chills  don't   up  on      you,                    And when the
              come

G|------- ------- ------- -------|------- ------- ------- -------|
D|-------------------------------|-------------------------------|
A|----------------7-----------7--|----------------7--------------|
E|5------------------------------|5-----------------------5------|
  rhythm  finally gets you and the beat   hits you too,


G|------- ------- ------- -------|------- ------- ------- -------|
D|-------------------------------|-------------------------------|
A|----------------9-------9------|7-----------7---7-------7------|
E|7-----------7------------------|-------------------------------|
  here's  thing   you to      do,
      a       for
Outro:
G|------- ------- ------- -------|------- ------- ------- -------|
D|-------------------------------|-------------------------------|
A|----------------9-------9------|7-----------7---7-------7------|
E|7-----------7------------------|-------------------------------|
  Here's  thing   you to      do,     one     time!
      a       for

G|------- ------- ------- -------|------- ------- ------- -------|
D|-------------------------------|-------------------------------|
A|----------------9--------------|7-----------7---7-------7------|
E|7-----------7------------------|-------------------------------|
  Get a   shot of rhythm  and blues,                  hey!


G|------- ------- ------- -------|
D|-------------------------------|
A|-------------------------------|
E|7-----------7-------7---7---7--|



G|-------------------------------------------------------------|
D|-------------------------------------------------------------|
A|-------------------------------------------------------------|
E|5------------------------------------------------------------|
                  Rhythm  and blues   now!


G|------- ------- ------- -------|------- ------- ------- -------|
D|-------------------------------|-------------------------------|
A|7------------------------------|-------------------------------|
E|-------------------------------|-------------------------------|

Please e-mail me for any corrections, or write a comment.
Добавлено: 11.10.2015
Другие материалы по этой песне:
  • Аккорды и текст

Страница создана 11.10.2015
http://primanota.ru/gerry-and-the-pacemakers/shot-of-rhythm-and-blues-chords.htm
Привет, Гость.
Предлагаем пройти революционный курс по гитаре.
Подарок от PrimaNota.Ru, забирай!