PrimaNota.ru - самый крупный в мире бесплатный архив песенных текстов, аккордов, табулатур и нот


Gerry & The Pacemakers - Jambalaya - бас-таба, видео

Регистрация Запомнить меня
Войти через:  Facebook Google Twitter Vk Yandex Mail.ru

Gerry & The Pacemakers - Jambalaya - бас-таба, видео

Печатать
Просмотров: 188
Уроки эстрадного вокала в Санкт-Петербурге
Jambalaya (On The Bayou)
Gerry And The Pacemakers
Written by Hank Williams; released as a single with "Summertime" as the B-side, and on the album "How Do You
Like It?".

Intro:
G|------- ------- ------- -------|------- ------- ------- -------|
D|-------------------------------|-------------------------------|
A|5------------------------------|5------------------------------|
E|----------------5--------------|----------------5--------------|



G|------- ------- ------- -------|------- ------- ------- -------|
D|-------------------------------|-------------------------------|
A|5------------------------------|5-----------------------4------|
E|----------------5--------------|--------5-------7--------------|
                                                  Come on,    Joe,

Verse:
G|------- ------- ------- -------|------- ------- ------- -------|
D|-------------------------------|-------------------------------|
A|5------------------------------|5-----------------------5------|
E|----------------5--------------|----------------5--------------|
                  we      gotta   go,             me, oh,     my,


G|------- ------- ------- -------|------- ------- ------- -------|
D|-------------------------------|-------------------------------|
A|----------------7--------------|----------------7-----------7--|
E|5------------------------------|5------------------------------|
      oh,                                             We  gotta


G|------- ------- ------- -------|------- ------- ------- -------|
D|-------------------------------|-------------------------------|
A|----------------7--------------|------------------------4------|
E|5------------------------------|5-------5-------7--------------|
  go,             take    the pi  -   rogue       down    the ba-


G|------- ------- ------- -------|------- ------- ------- -------|
D|-------------------------------|-------------------------------|
A|5------------------------------|5-----------------------4------|
E|----------------5--------------|--------5-------7--------------|
      you.                                        Pick    guitar,


G|------- ------- ------- -------|------- ------- ------- -------|
D|-------------------------------|-------------------------------|
A|5------------------------------|5-----------------------5------|
E|----------------5--------------|----------------5--------------|
                  fill    fruit   jar,            and     be  gay,


G|------- ------- ------- -------|------- ------- ------- -------|
D|-------------------------------|-------------------------------|
A|-------------------------------|-------------------------------|
E|5---------------0--------------|5---------------0-------3------|
      oh,                                             Son of  a


G|------- ------- ------- -------|------- ------- ------- -------|
D|-------------------------------|-------------------------------|
A|-------------------------------|------------------------4------|
E|5-----------5---0--------------|5-------5-------7--------------|
  gun,    we're   havin'      fun                 on      the ba-


G|------- ------- ------- -------|------- ------- ------- -------|
D|-------------------------------|-------------------------------|
A|5------------------------------|5-----------------------4------|
E|----------------5--------------|--------5-------7--------------|
      you.                            I  said now come on,    Joe,

Verse:
G|------- ------- ------- -------|------- ------- ------- -------|
D|-------------------------------|-------------------------------|
A|5------------------------------|5-----------------------5------|
E|----------------5--------------|----------------5--------------|
                  we      gotta   go,                 oh, on  the


G|------- ------- ------- -------|------- ------- ------- -------|
D|-------------------------------|-------------------------------|
A|----------------7--------------|----------------7--------------|
E|5------------------------------|5------------------------------|
  ba  -   you,                        Oh,             we  gotta


G|------- ------- ------- -------|------- ------- ------- -------|
D|-------------------------------|-------------------------------|
A|----------------7--------------|------------------------4------|
E|5------------------------------|5-------5-------7--------------|
  go,             take    the pi  -   rogue           down    the


G|------- ------- ------- -------|------- ------- ------- -------|
D|-------------------------------|-------------------------------|
A|5------------------------------|5-----------------------4------|
E|----------------5--------------|--------5-------7--------------|
  ba- you.                            Well,   we'll   a   guitar,
                                          now,    pick

G|------- ------- ------- -------|------- ------- ------- -------|
D|-------------------------------|-------------------------------|
A|5------------------------------|5-----------------------5------|
E|----------------5--------------|----------------5--------------|
                  fill    fruit   jar,            and     be  gay,


G|------- ------- ------- -------|------- ------- ------- -------|
D|-------------------------------|-------------------------------|
A|----------------7--------------|----------------7-------7------|
E|5------------------------------|5------------------------------|
      oh,                                             Son of  a


G|------- ------- ------- -------|------- ------- ------- -------|
D|-------------------------------|-------------------------------|
A|----------------7--------------|------------------------4------|
E|5------------------------------|5---------------7--------------|
  gun,    we're   ha- vin'    fun                     on      the


G|------- ------- ------- -------|------- ------- ------- -------|
D|-------------------------------|-------------------------------|
A|5-----------5------------------|5-----------------------4------|
E|----------------5-------5------|--------5-------7--------------|
  ba  -   you.                Well,               jam  -  ba- laya,

Verse:
G|------- ------- ------- -------|------- ------- ------- -------|
D|-------------------------------|-------------------------------|
A|5------------------------------|5-----------------------5------|
E|----------------5--------------|----------------5--------------|
              a   craw -  fish    pie         and fil  -  let gum-


G|------- ------- ------- -------|------- ------- ------- -------|
D|-------------------------------|-------------------------------|
A|----------------7--------------|----------------7-------7------|
E|5------------------------------|5------------------------------|
      bo,                                             Whoa,   to-


G|------- ------- ------- -------|------- ------- ------- -------|
D|-------------------------------|-------------------------------|
A|----------------7--------------|------------------------4------|
E|5------------------------------|5-------5-------7--------------|
  night   I'm     gon  -  na  see,            oh,     my  cher a-


G|------- ------- ------- -------|------- ------- ------- -------|
D|-------------------------------|-------------------------------|
A|5------------------------------|5-----------------------4------|
E|----------------5-----------5--|--------5-------7--------------|
  mi- o.                              Oh,     now,    now pick gui-


G|------- ------- ------- -------|------- ------- ------- -------|
D|-------------------------------|-------------------------------|
A|5-----------5------------------|5-----------5-----------5------|
E|----------------5-----------5--|----------------5--------------|
  tar,            fill    fruit jar,              and     be  gay,


G|------- ------- ------- -------|------- ------- ------- -------|
D|-------------------------------|-------------------------------|
A|----------------7--------------|----------------7-------7------|
E|5------------------------------|5------------------------------|
      oh,                                         Son of  a   gun,


G|------- ------- ------- -------|------- ------- ------- -------|
D|-------------------------------|-------------------------------|
A|----------------7--------------|------------------------4------|
E|5------------------------------|5-------5-------7--------------|
          we're   ha- vin'    fun                 on      the ba-


G|------- ------- ------- -------|------- ------- ------- -------|
D|-------------------------------|-------------------------------|
A|5------------------------------|5-----------------------4------|
E|----------------5-------5------|--------5-------7--------------|
      you.            Oh,     let's   go      then!

Verse (solo):
G|------- ------- ------- -------|------- ------- ------- -------|
D|-------------------------------|-------------------------------|
A|5-----------------------2------|5-------2----------------------|
E|--------2-------5--------------|----------------5-------2------|



G|------- ------- ------- -------|------- ------- ------- -------|
D|------------------------4------|-------------------------------|
A|--------4-------7--------------|--------4-------7-------4------|
E/5------------------------------|5------------------------------|



G|------- ------- ------- -------|------- ------- ------- -------|
D|-------------------------------|-------------------------------|
A|--------4-------7-------4------|------------------------4------|
E|5------------------------------|5-------5-------7--------------|



G|------- ------- ------- -------|------- ------- ------- -------|
D|-------------------------------|-------------------------------|
A|5-------2----------------------|5-------2----------------------|
E|----------------5-------2---2--|----------------5-------2------|



G|------- ------- ------- -------|------- ------- ------- -------|
D|-------------------------------|-------------------------------|
A|5-------2----------------------|5-------2----------------------|
E|----------------5-------2------|----------------5-------2------|



G|------- ------- ------- -------|------- ------- ------- -------|
D|------------------------4------|-------------------------------|
A|--------4-------7--------------|--------4-------7-------4------|
E|5------------------------------|5------------------------------|



G|------- ------- ------- -------|------- ------- ------- -------|
D|-------------------------------|-------------------------------|
A|--------4-------7-------4------|------------------------4------|
E|5------------------------------|5-------5-------7--------------|



G|------- ------- ------- -------|------- ------- ------- -------|
D|-------------------------------|-------------------------------|
A|5------------------------------|5-----------------------4------|
E|----------------5-------5------|--------5-------7--------------|
                              Well,               come on,    Joe,

Verse:
G|------- ------- ------- -------|------- ------- ------- -------|
D|-------------------------------|-------------------------------|
A|5-------2----------------------|5-------2----------------------|
E|----------------5-------2------|----------------5-------2------|
          now     we      gotta   go,             whoa,   down the


G|------- ------- ------- -------|------- ------- ------- -------|
D|-------------------------------|-------------------------------|
A|----------------7-----------7--|----------------7-------7------|
E|5-----------5------------------|5------------------------------|
  ba  -   you,                            Yeah,       we  gotta


G|------- ------- ------- -------|------- ------- ------- -------|
D|-------------------------------|-------------------------------|
A|----------------7--------------|------------------------4------|
E|5------------------------------|5-------5-------7--------------|
  go,             take    the pi  -   rogue           down    the


G|------- ------- ------- -------|------- ------- ------- -------|
D|-------------------------------|-------------------------------|
A|5------------------------------|5-----------------------4------|
E|----------------5--------------|--------5-------7--------------|
  ba- you.                    Well,               bring   your ma,


G|------- ------- ------- -------|------- ------- ------- -------|
D|-------------------------------|-------------------------------|
A|5------------------------------|5-----------------------5------|
E|----------------5--------------|----------------5--------------|
                      fill  fruit jar,            and     be  gay,


G|------- ------- ------- -------|------- ------- ------- -------|
D|-------------------------------|-------------------------------|
A|----------------7--------------|----------------7-------7------|
E|5------------------------------|5------------------------------|
      oh,                                     Ah, son of  a   gun,


G|------- ------- ------- -------|------- ------- ------- -------|
D|-------------------------------|-------------------------------|
A|----------------7--------------|------------------------4------|
E|5------------------------------|5-------5-------7--------------|
          we're   ha- vin'    fun                 down    the ba-


G|------- ------- ------- -------|------- ------- ------- -------|
D|-------------------------------|-------------------------------|
A|5------------------------------|5-----------------------4------|
E|----------------5-------5------|--------5-------7--------------|
      you.                    Well,                   Jam  -  ba-

Verse:
G|------- ------- ------- -------|------- ------- ------- -------|
D|-------------------------------|-------------------------------|
A|5------------------------------|5-----------------------5------|
E|----------------5--------------|----------------5--------------|
  laya,   well, a craw -  fish    pie         and fil  -  let gum-


G|------- ------- ------- -------|------- ------- ------- -------|
D|-------------------------------|-------------------------------|
A|-------------------------------|-------------------------------|
E|5---------------0--------------|5---------------0-------3------|
      bo,                                 Oh,         now,    to-


G|------- ------- ------- -------|------- ------- ------- -------|
D|-------------------------------|-------------------------------|
A|-------------------------------|------------------------4------|
E|5-----------5---0--------------|5-------5-------7--------------|
  night   I'm     gon  -  na  see,                whoa,


G|------- ------- ------- -------|------- ------- ------- -------|
D|-------------------------------|-------------------------------|
A|5-----------5------------------|5-----------------------4------|
E|----------------5-------5------|--------5-------7--------------|
      I'm gonna   see my  cher a- mi- o.      Bring   your    ma,


G|------- ------- ------- -------|------- ------- ------- -------|
D|-------------------------------|-------------------------------|
A|5------------------------------|5-----------------------5------|
E|----------------5-------5------|----------------5--------------|
                  fill    fruit   jar,            and     be  gay,


G|------- ------- ------- -------|------- ------- ------- -------|
D|-------------------------------|-------------------------------|
A|----------------7-------7------|----------------7-------7------|
E|5-----------5------------------|5-----------5------------------|
      oh,                                         Son of  a   gun,


G|------- ------- ------- -------|------- ------- ------- -------|
D|-------------------------------|-------------------------------|
A|----------------7-------7------|------------------------4------|
E|5------------------------------|5-------5-------7--------------|
              we're havin'    fun                 on      the ba-


G|------- ------- ------- -------|------- ------- ------- -------|
D|-------------------------------|-------------------------------|
A|5-------5----------------------|--------4---5-----------5------|
E|----------------5-------5------|5---7--------------------------|
      you.

Please e-mail me for any corrections, or write a comment.
Добавлено: 05.07.2015
Другие материалы по этой песне:
  • Аккорды и текст

Страница создана 05.07.2015
http://primanota.ru/gerry-and-the-pacemakers/jambalaya-chords.htm
Привет, Гость.
Предлагаем пройти революционный курс по гитаре.
Подарок от PrimaNota.Ru, забирай!