PrimaNota.ru - самый крупный в мире бесплатный архив песенных текстов, аккордов, табулатур и нот


Gerry & The Pacemakers - Where Have You Been - бас-таба, видео

Регистрация Запомнить меня
Войти через:  Facebook Google Twitter Vk Yandex Mail.ru

Gerry & The Pacemakers - Where Have You Been - бас-таба, видео

Печатать
Просмотров: 114
Where Have You Been?
Gerry And The Pacemakers
Written by Barry Mann and Cynthia Weil; released on the album "How
Do You Like It?".

Intro:
G|------- ------- ------- -------|------- ------- ------- -------|
D|3-----------3------------------|3-----------3------------------|
A|----------------3-------3------|----------------3-------3------|
E|-------------------------------|-------------------------------|



G|------- ------- ------- -------|------- ------- ------- -------|
D|3-----------3------------------|3-----------3------------------|
A|----------------3-------3------|----------------3-------3------|
E|-------------------------------|-------------------------------|


Verse:
G|------- ------- ------- -------|------- ------- ------- -------|
D|3-----------3------------------|3-----------3-----------3---2--|
A|----------------3--------------|----------------3--------------|
E|-------------------------------|-------------------------------|
  Till    we      kissed,     I   ne- ver knew    thrills could be
                                              the     that

G|------- ------- ------- 2------|------- ------- ------- 2------|
D|----------------3--------------|----------------3--------------|
A|5------------------------------|5------------------------------|
E|-------------------------------|-------------------------------|
  tas  -  ted,


G|3------ ------- ------- -------|3------ ------- ------- 3------|
D|----------------3-------3------|----------------3-----------3--|
A|-------------------------------|-------------------------------|
E|-------------------------------|-------------------------------|
  Till    we      kissed,     I   never knew the years that I have


G|------- ------- ------- -------|------- ------- ------- -------|
D|----------------5-------5------|----------------0-------2---2--|
A|3------------------------------|3------------------------------|
E|-------------------------------|-------------------------------|
  was     -       ted.                But now I   know    I   was

Refrain:
G|------- ------- ------- -------|------- ------- ------- -------|
D|3------------------------------|3-----------------------3---2--|
A|----------------3-----------3--|----------------3--------------|
E|-------------------------------|-------------------------------|
  wai  -  tin'                for you  to    come by,     I   was


G|------- ------- ------- 2------|------- ------- ------- 2------|
D|----------------3--------------|----------------3-----------3--|
A|5------------------------------|5------------------------------|
E|-------------------------------|-------------------------------|
  wai  -  ting,   girl, Won't you please tell me  why this took so


G|3------ ------- ------- 3------|------- ------- ------- 5------|
D|----------------3--------------|----------------5--------------|
A|-------------------------------|3------------------------------|
E|-------------------------------|-------------------------------|
  long    to  be- gin,    darlin',    where have you been all my


G|------- ------- ------- -------|------- ------- ------- -------|
D|3-----------3------------------|2------------------------------|
A|----------------3-------3------|----3---3---3---3---3---3---3--|
E|-------------------------------|-------------------------------|
  life?                               Now don't you know  that

Verse:
G|------- ------- ------- -------|------- ------- ------- -------|
D|3------------------------------|3-----------3-----------3---2--|
A|----------------3-------3------|----------------3--------------|
E|-------------------------------|-------------------------------|
  till    we      touched,    I   never knew a touch was worth re-


G|------- ------- ------- 2------|------- ------- ------- -------|
D|----------------3--------------|----------------3--------------|
A|5------------------------------|5-----------------------5------|
E|-------------------------------|-------------------------------|
  vea  -  lin',


G|3------ ------- ------- -------|3------ ----3-- ------- -------|
D|----------------3-------3------|----------------3--------------|
A|-------------------------------|------------------------5------|
E|-------------------------------|-------------------------------|
  Till    we      touched,    I   never knew my heart was truly


G|------- ------- ------- -------|------- ------- ------- -------|
D|----------------5-------5------|----------------0---0---2------|
A|3------------------------------|3-------3---3------------------|
E|-------------------------------|-------------------------------|
  bea     -       tin'.               But now I   know    I   was

Refrain:
G|------- ------- ------- -------|------- ------- ------- -------|
D|3------------------------------|3-----------------------3---2--|
A|----------------3--------------|----------------3--------------|
E|-------------------------------|-------------------------------|
  wai  -  tin'                for you  to    come by,     I   was
  ooooooooooooooooooooooooooooooooooooooooooooooooooooooooooooooo

G|------- ------- ------- 2------|------- ------- ------- -------|
D|----------------3--------------|----------------3--------------|
A|5------------------------------|5-----------5-----------5------|
E|-------------------------------|-------------------------------|
  wai  -  ting,   girl, Won't you please tell me  why this took so
  ooooooooooooooooooooooooooooooooooooooooooooooooooooooooh

G|3------ ------- ------- -------|------- ------- ------- -------|
D|----------------3-------3---3--|----------------5--------------|
A|-------------------------------|3-----------------------3------|
E|-------------------------------|-------------------------------|
  long    to  be- gin,    darlin',    where have you been all my life?
  ooooooooooooooooooooooooooooooooooooooooooooooooooooooooooooooo

G|------- ------- ------- -------|------- ------- ------- -------|
D|3-----------3------------------|2------------------------------|
A|----------------3-------3------|----3---3---3---3---3---3---3--|
E|-------------------------------|-------------------------------|
                                          Oh,     dar  -  lin',
  oooooooooooooooooooooooooooooooh
Verse:
G|------- ------- ------- -------|------- ------- ------- -------|
D|3-----------3------------------|3-----------3-------3---2---1--|
A|----------------3-------3---3--|----------------3--------------|
E|-------------------------------|-------------------------------|
  where have  you been,   where   been,   where   been when I was
                              you've          you've

G|------- ------- ------- 2------|------- ------- ------- 2------|
D|0---------------3--------------|----------------3-----------3--|
A|-------------------------------|5------------------------------|
E|-------------------------------|-------------------------------|
          feelin' blue,                fee - lin' blue?


G|3------ ------- ------- -------|3------ ------- ------- -------|
D|----------------3-----------3--|----------------3-----------3--|
A|-------------------------------|------------------------1------|
E|-------------------------------|-------------------------------|
  Where have  you been,   where   been,   where   been when I was
                              you've          you've

G|------- ------- ------- -------|------- ------- ------- -------|
D|----------------5-------5---5--|----------------0---0---2---2--|
A|3-----------3------------------|3-------3---3------------------|
E|-------------------------------|-------------------------------|
      needing you?                    Oh, where   been,   where
                                              you've           you've
Verse (solo):
G|------- ------- ------- -------|------- ------- ------- -------|
D|3-----------3------------------|3-----------3-------3---2---1--|
A|----------------3-----------3--|----------------3--------------|
E|-------------------------------|-------------------------------|
  been?


G|------- ------- ------- 2------|------- ------- ------- -------|
D|0---------------3--------------|----------------3--------------|
A|-------------------------------|5-----------------------5------|
E|-------------------------------|-------------------------------|



G|3------ ------- ------- -------|3------ ------- ------- 3------|
D|----------------3-------3------|----------------3--------------|
A|-------------------------------|-------------------------------|
E|-------------------------------|-------------------------------|



G|------- ------- ------- -------|------- ------- ------- -------|
D|----------------5-------5------|----------------0---0---2---2--|
A|3-----------3------------------|3-------3---3------------------|
E|-------------------------------|-------------------------------|
                                      But now I   know    I   was

Refrain:
G|------- ------- ------- -------|------- ------- ------- -------|
D|3------------------------------|3-----------3-----------3---2--|
A|----------------3-------3------|----------------3--------------|
E|-------------------------------|-------------------------------|
  wai  -  tin'                for you  to    come by,     I   was
  ooooooooooooooooooooooooooooooooooooooooooooooooooooooooooooooo

G|------- ------- ------- 2------|------- ------- ------- -------|
D|----------------3--------------|----------------3--------------|
A|5-----------5------------------|5-----------5-----------5------|
E|-------------------------------|-------------------------------|
  wai  -  ting,   girl, Won't you please tell me  why this took so
  ooooooooooooooooooooooooooooooooooooooooooooooooooooooooh

G|3------ ------- ------- -------|------- ------- ------- -------|
D|----------------3-----------3--|----------------2-------5------|
A|-------------------------------|3-----------3------------------|
E|-------------------------------|-------------------------------|
  long    to  be- gin,    darlin',    where have you been all my life?
  ooooooooooooooooooooooooooooooooooooooooooooooooooooooooooooooo

G|------- ------- ------- -------|------- ------- ------- -------|
D|3-----------3------------------|3------------------------------|
A|----------------3-------3------|----3---3---3---3---3---3---3--|
E|-------------------------------|-------------------------------|
                                          Oh,     dar  -  lin',
  oooooooooooooooooooooooooooooooh
Verse:
G|------- ------- ------- -------|------- ------- ------- -------|
D|3-----------3------------------|3-----------3-------3---2---1--|
A|----------------3-------3------|----------------3--------------|
E|-------------------------------|-------------------------------|
  where have  you been,   where   been,   where   been when I was
                              you've          you've

G|------- ------- ------- 2------|------- ------- ------- -------|
D|0-----------0---3--------------|----------------3--------------|
A|-------------------------------|5-----------------------5------|
E|-------------------------------|-------------------------------|
       fee - lin' blue,                fee - lin' blue?


G|3------ ----3-- ------- 0---2--|3------ ----3-- ------- 3------|
D|----------------3--------------|----------------3--------------|
A|-------------------------------|-------------------------------|
E|-------------------------------|-------------------------------|
  Where have  you been,   where   been,   where   been when I was
                              you've          you've

G|------- ------- ------- -------|------- ------- ------- -------|
D|----------------5-------5------|----------------0-------2---2--|
A|3-----------3------------------|3-------3---3------------------|
E|-------------------------------|-------------------------------|
      needing you?                    Oh, where   been,   where
                                              you've           you've
Outro:
G|------- ------- ------- -------|------- ------- ------- -------|
D|3-----------3------------------|2------------------------------|
A|----------------3-------3------|----3---3---3---3---3---3---3--|
E|-------------------------------|-------------------------------|
  been?                               Oh, where   been,   where
                                              you've           you've...
Repeat and fade out...

Please e-mail me for any corrections, or write a comment.
Добавлено: 11.10.2015
Другие материалы по этой песне:
  • Аккорды и текст

Страница создана 11.10.2015
http://primanota.ru/gerry-and-the-pacemakers/where-have-you-been-chords.htm
Привет, Гость.
Предлагаем пройти революционный курс по гитаре.
Подарок от PrimaNota.Ru, забирай!