PrimaNota.ru - самый крупный в мире бесплатный архив песенных текстов, аккордов, табулатур и нот


George Harrison - Wake Up My Love - аккорды и текст, таба, бас-таба, видео

Регистрация Запомнить меня
Войти через:  Facebook Google Twitter Vk Yandex Mail.ru

George Harrison - Wake Up My Love - аккорды и текст, таба, бас-таба, видео

Печатать
Просмотров: 257
Wake Up My Love
George Harrison
---------------------------------------------------------------------------
          Wake Up My Love - George Harrison
---------------------------------------------------------------------------
Tabbed by: maguri
Tuning: Standard

George Harrison
Wake Up My Love (1982)
(Harrison)

From: "Gone Troppo"

Two versions:

Version 1: capo 5th fret (great for the riff)

Version 2: no capo (more bottom end)


---------------------------------------------------------------------------
VERSION 1

capo: 5th fret
play: D
key: G

---------------------------------------------------------------------------
capo 5th fret

         A        G/A  A            D/A    A        D/A G/A           D/A
  + 4 +  1 + 2 + 3 + 4 +  1 + 2 + 3 + 4 +  1 + 2 + 3 + 4 +  1 + 2 + 3 + 4 +
e ------|----------------|----------------|----------------|----------------|
B 3-3-3-|2---------0---2-|----------3-3-3-|2---------3---0-|----------3-3-3-|
G 2-2-2-|2---------0---2-|----------2-2-2-|2---------2---0-|----------2-2-2-|
D 4-4-4-|2---------0---2-|----------4-4-4-|2---------4---0-|----------4-4-4-|
A ------|0-0-0-0-0-0-0-0-|0-0-0-0-0-0-0-0-|0-0-0-0-0-0-0-0-|0-0-0-0-0-0-0-0-|
E ------|----------------|----------------|----------------|----------------|

  + 4 +  1 + 2 + 3 + 4 +  1 + 2 + 3 + 4 +  1 + 2 + 3 + 4 +  1 + 2 + 3 + 4 +
e ------|----------------|----------------|----------------|----------------|
B ------|----------------|----------------|----------------|----------------|
G ------|----------------|----------------|----------------|----------------|
D ------|----------------|--2-------------|----------------|----------------|
A ------|------0------/4-|----0---0-------|------0------/5-|--4-2-0---------|
E ------|--0h2-----------|----------------|--0h2-----------|--------3-------|



---------------------------------------------------------------------------

INTRO
| A  G/A  A | A  D/A | A  D/A G/A | G/A   D/A |
| A  G/A  A | A  D/A | A  D/A G/A | G/A   D/A |
| A  G/A  A | A  D/A | A  D/A G/A | G/A   D/A |


VERSE
A      G/A A         D/A
 Here I    go again
A                  D/A         G/A           D/A
 Hear that knockin', won't you let me in?
A           G/A A               D/A
 Only want that same old thing
A            D/A  G/A
 Yet it's me here ring, ring, ring


CHORUS
            Em7              A7sus4          D
I want your love, wake up my love and let it in


VERSE
D/A  A               G/A  A           D/A
      Well, you know it's me out here
A                   D/A    G/A               D/A
 Can't give up now, let us make that clear
A               G/A A           D/A
 All I've had's the run around
A              D/A  G/A
 Though I'm barking like some hound


CHORUS
            Em7              A7sus4          D
I want your love, wake up my love and let it in
            Em7              A7sus4          D
I want your love, wake up my love and let it in


INTERLUDE (= verse + chorus)
| A  G/A  A | A  D/A | A  D/A G | G   D/A |
| A  G/A  A | A  D/A | A  D/A G/A | G/A   D/A |
| Em7 | A7sus4 | D | D |


VERSE
D/A  A               G/A A           D/A
      My life's been so    many ways
A             D/A  G/A               D/A
 Too much darkness gets me crazed
A           G/A A            D/A
 All around us  people fight
A               D/A  G/A
 Christ, I'm looking for some light


CHORUS
            Em7              A7sus4          D
Inside your love, wake up my love and let it in


VERSE
D/A  A             G/A A              D/A
      I don't have no  friends of mine
A              D/A  G/A               D/A
 Who can swing me   down that vine
A               G/A A            D/A
 Not much sense in  what they do
A            D/A  G/A
 That is why I'm  calling you


CHORUS
          Em7              A7sus4          D
Inside my love, wake up my love and let it in
            Em7              A7sus4          D
I want your love, wake up my love and let it in
           Em7              A7sus4          D
Wake up my love, wake up my love and let it in


VERSE
D/A  A     G/A A              D/A
      Oh I     need you Lord
A      D/A  G/A               D/A
 Oh, I      need you more
A                G/A  A            D/A
 There's this empty - ness outside
A              D/A  G/A
 And you know, it   drives me wild


VERSE
D/A  A             G/A A                D/A
      I grow tired of   wrong and right
A             D/A  G/A               D/A
 You can see, I    need your light
A         G/A  A                     D/A
 That's me     knocking on your door
A             G/A  A              D/A
 And it's you I'm  looking for

| A  G/A  A | A  D/A | A  D/A G/A | G/A |
  Oh Lord                Oh Lord


OUTRO (= chorus)
Em7           A7sus4       D
   Wake up my love, let it in
            Em7              A7sus4          D
I want your love, wake up my love and let it in
            Em7              A7sus4          D
I want your love, wake up my love and let it in

(repeat and fade)


---------------------------------------------------------------------------
VERSION 2

capo: -
play: G
key: G

---------------------------------------------------------------------------

         D        C/D  D            G/D    D        G/D C/D           G/D
  + 4 +  1 + 2 + 3 + 4 +  1 + 2 + 3 + 4 +  1 + 2 + 3 + 4 +  1 + 2 + 3 + 4 +
e 3-3-3-|2---------0---2-|----------------|2---------3---0-|----------3-3-3-|
B 0-0-0-|3---------1---3-|----------0-0-0-|3---------0---1-|----------0-0-0-|
G 0-0-0-|2---------0---2-|----------0-0-0-|2---------0---0-|----------0-0-0-|
D 0-0-0-|0---------0---0-|----------0-0-0-|0---------0---0-|----------0-0-0-|
A ------|----------------|----------------|----------------|----------------|
E ------|----------------|----------------|----------------|----------------|

  + 4 +  1 + 2 + 3 + 4 +  1 + 2 + 3 + 4 +  1 + 2 + 3 + 4 +  1 + 2 + 3 + 4 +
e ------|----------------|----------------|----------------|----------------|
B ------|----------------|----------------|----------------|----------------|
G ------|----------------|----------------|----------------|----------------|
D ------|----------------|--7-------------|----------------|----------------|
A ------|------5------/9-|----------------|------5------/10|--9-7-----------|
E ------|--5h7-----------|----10--10------|--5h7-----------|------10-8------|

---------------------------------------------------------------------------

INTRO
| D  C/D  D | D  G/D | D  G/D C/D | C/D   G/D |
| D  C/D  D | D  G/D | D  G/D C/D | C/D   G/D |
| D  C/D  D | D  G/D | D  G/D C/D | C/D   G/D |


VERSE
D      C/D D         G/D
 Here I    go again
D                  G/D         C/D           G/D
 Hear that knockin', won't you let me in?
D           C/D D               G/D
 Only want that same old thing
D            G/D  C/D
 Yet it's me here ring, ring, ring


CHORUS
            Am7              C/D             G
I want your love, wake up my love and let it in


VERSE
G/D  D               C/D  D           G/D
      Well, you know it's me out here
D                   G/D    C/D               G/D
 Can't give up now, let us make that clear
D               C/D D           G/D
 All I've had's the run around
D              G/D  C/D
 Though I'm barking like some hound


CHORUS
            Am7              C/D             G
I want your love, wake up my love and let it in
            Am7              C/D             G
I want your love, wake up my love and let it in


INTERLUDE (= verse + chorus)
| D  C/D  D | D  G/D | D  G/D C | C   G/D |
| D  C/D  D | D  G/D | D  G/D C/D | C/D   G/D |
| Am7 | C/D | G | G |


VERSE
G/D  D               C/D D           G/D
      My life's been so    many ways
D             G/D  C/D               G/D
 Too much darkness gets me crazed
D           C/D D            G/D
 All around us  people fight
D               G/D  C/D
 Christ, I'm looking for some light


CHORUS
            Am7              C/D             G
Inside your love, wake up my love and let it in


VERSE
G/D  D             C/D D              G/D
      I don't have no  friends of mine
D              G/D  C/D               G/D
 Who can swing me   down that vine
D               C/D D            G/D
 Not much sense in  what they do
D            G/D  C/D
 That is why I'm  calling you


CHORUS
          Am7              C/D             G
Inside my love, wake up my love and let it in
            Am7              C/D             G
I want your love, wake up my love and let it in
           Am7              C/D             G
Wake up my love, wake up my love and let it in


VERSE
G/D  D     C/D D              G/D
      Oh I     need you Lord
D      G/D  C/D               G/D
 Oh, I      need you more
D                C/D  D            G/D
 There's this empty - ness outside
D              G/D  C/D
 And you know, it   drives me wild


VERSE
G/D  D             C/D D                G/D
      I grow tired of   wrong and right
D             G/D  C/D               G/D
 You can see, I    need your light
D         C/D  D                     G/D
 That's me     knocking on your door
D             C/D  D              G/D
 And it's you I'm  looking for

| D  C/D  D | D  G/D | D  G/D C/D | C/D |
  Oh Lord                Oh Lord


OUTRO (= chorus)
Am7           C/D          G
   Wake up my love, let it in
            Am7              C/D             G
I want your love, wake up my love and let it in
            Am7              C/D             G
I want your love, wake up my love and let it in

(repeat and fade)


Добавлено: 16.08.2015
Другие материалы по этой песне:
  • Аккорды и текст

Страница создана 25.02.2012
http://primanota.ru/george-harrison/wake-up-my-love-chords.htm
Привет, Гость.
Предлагаем пройти революционный курс по гитаре.
Подарок от PrimaNota.Ru, забирай!