PrimaNota.ru - самый крупный в мире бесплатный архив песенных текстов, аккордов, табулатур и нот


George Harrison - What Is Love - аккорды и текст, видео

Регистрация Запомнить меня
Войти через:  Facebook Google Twitter Vk Yandex Mail.ru

George Harrison - What Is Love - аккорды и текст, видео

Печатать
Просмотров: 165
What Is Love
George Harrison
"What Is Love?"

written by George Harrison

From the album "All Things Must Pass"

Tabbed by Scot the Hoople (scotthehoople@cox.net)

 

I was looking for this on  and didn't find it, so here it is:

If you're playing this alone, play the chords for the chorus. If

you have a friend (and I hope you do), have them play the intro

riff behind the chorus. There^Òs a lot going on overdub-wise that I

haven^Òt tabbed, but this arrangement works well for unaccompanied

acoustic guitar. Oh yeah, ^Óall my own work!^Ô

 

 

INTRO (this riff is played behind the chorus if you have 2 guitarists):

 

e ------------------------------------------------

B ------------------------------------------------

G ------------------------------------------------

D 2-1------1--------------2-1------1--------------

A ----4-2----4-2-0--0-0-2-----4-2----4-2-0---0242-

E ------------------------------------------------

 

                         (1 and 2 and 3 and 4 and)

      (Band enters here:) E  /  B  /  A  /  /  B

e ------------------------------------------------

B ------------------------------------------------

G ------------------------------------------------

D 2-1------1--------------2-1------1--------------

A ----4-2----4-2-0--0-0-2-----4-2----4-2-0---0242-

E ------------------------------------------------

 

  E  /  B  /  A  /  /  B  E  /  B  /  A  /  /  B  D  /  /  /  /  /  /  /

e
------------------------------------------------------------2-2-2-------

B
------------------------------------------------------------3-3-3-------

G
------------------------------------------------------------2-2-2-------

D
2-1------1--------------2-1------1--------------5-----4--2--0-0-0-------

A
----4-2----4-2-0--0-0-2-----4-2----4-2-0---0242-------------------------

E
------------------------------------------------------------------------

                                                                    What
I

 

VERSE 1:

E          B

feel . . . say

 

       C#         F#        G

But my love . . . any . . . day

 

                E          B

But if it's not love . . . need

 

          C#        F#            G

Then I'll try . . . everything succeed

 

CHORUS:

         E    B     A     B    E    B    A

Tell me, what is my life . . . love

 

A    B   E  B  A  B  E  B  A  B  D

Tell me, who . . . . you . . . . side

 

VERSE 2:

       E          B

What I know . . . do

 

     C#         F#            G

If I give . . . everyone like you

 

                E          B

But if it's not love . . . need

 

          C#        F#         G

Then I'll try . . . everything succeed

 

REPEAT CHORUS X 2

 

REPEAT INTRO

 

REPEAT VERSE 1

 

REPEAT CHORUS AND FADE

 

 


     
Добавлено: 23.06.2013
Другие материалы по этой песне:
  • Аккорды и текст

Страница создана 23.06.2013
http://primanota.ru/george-harrison/what-is-love-chords.htm
Привет, Гость.
Предлагаем пройти революционный курс по гитаре.
Подарок от PrimaNota.Ru, забирай!