PrimaNota.ru - самый крупный в мире бесплатный архив песенных текстов, аккордов, табулатур и нот


Gackt - Lu Na - текст песни, таба, видео

Регистрация Запомнить меня
Войти через:  Facebook Google Twitter Vk Yandex Mail.ru

Gackt - Lu Na - текст песни, таба, видео

Печатать
Просмотров: 143
Авторы музыки: GACKT
Авторы текста: GACKT
Lu:Na
Album: Moon
Transcribed by: Yann
Email: yann@stig-mata.de

There are almost no Gackt tabs on the (western) net, and as I
love Gackt and especially this song, I tabbed it out.
I'm not sure if I caught all of the solo, but I think it
sounds about right. Somewhat weird solo anyways. ^^

Tuning is: CGCFAD (I was surprised myself)

/ = Slide Up

Verse
------------------------------------------|
------------------------------------------|
-----------------------8-8----------------|
-3-3---3-6-6---6-6--6--8-8---8--8--8--6---|
-3-3---3-6-6---6-6--6--6-6---8--8--8--6---|
-3-3---3-6-6---6-6--6--------8--8--8--6---|

Verse Solo
------------------------------------------------------------------------|
------------------------------------------------------------------------|
-----17------17-----17-------17------17--------17--------17-------------|
-15------15-----15------15-------15-------15--------15------------------|
------------------------------------------------------------------------|
------------------------------------------------------------------------|


Pre-Chorus                             Chorus
-------------------------------------|-------------------------------|
-------------------------------------|-------------------------------|
------------------8-8------8-6-------|------8-88--66-----------------|
-33---/6-6--------8-8------8-6-------|--33--8-88--66--8--888--66-----|
-33---/6-6--------6-6------6-4-------|--33--6-66--44--8--888--66-----|
-33---/6-6---------------------------|--33------------8--888--66-----|


Bridge 1                           Bridge 2
---------------------------------|------------------------------------|
---------------------------------|------------------------------------|
---------------------------------|------------------------------------|
-3-3----3-3----3-3----3-3--------|--3-3----3-3----3-3----3-3----3-3---|
-3-3----3-3----3-3----3-3--------|--3-3----3-3----3-3----3-3----3-3---|
-3-3----3-3----3-3----3-3--------|--3-3----3-3----3-3----3-3----3-3---|

Bridge 3
----------------------------------|
----------------------------------|
----------------------------------|
-333----3-3----3-3----3-3----3-3--|
-333----3-3----3-3----3-3----3-3--|
-333----3-3----3-3----3-3----3-3--|


Solo
---------------------------------------|-----------------------------------|--|
---------------------------------------|-----------------------------------|--|
---------------------------------------|-----------------------------------|--|
-----------5---5--55-6--88--66--55--33-|------------5---55--6---33-22-33-22|--|
-3--6-4--3-----------------------------|-3--6-4--3-------------------------|--|
---------------------------------------|-----------------------------------|--|

------------------------------------------------------------------------------|
------------------------------------------------------------------------------|
------------------------------------------------------------------------------|
-3--5-6--5---10--10--8-10--6-8--5-6-------------------------------------------|
-------------------------------------8-10--6-8--------------------------------|
------------------------------------------------12-13--10-11--8-10--6-8--5-6--|

-------------------|
-------------------|
-------------------|
-------------------|
-------------------|
-3-5-3-1-3-1-0-0---|


Interlude 1
-------------------------------------------|
-------------------------------------------|
-------------------------------------------|
-888-0--888-0-888-00-888-0--888-0-888-00---|
-888-0--888-0-888-00-888-0--888-0-888-00---|
-888-0--888-0-888-00-777-0--777-0-777-00---|

Interlude 2
-------------------|
-------------------|
-------------------|
-3--6-5-4----------|
-3--6-5-4----------|
-3--6-5-4----------|


Song Structre:

|     Guitar 1     |    Guitar 2     |     Guitar 3     |
| ---------------- | --------------- | ---------------- |
|     (all guitars make weird noises with tremolo)      |
|    Verse 4x      |    Verse  4x    |  Verse Solo 4x   |
|    Verse 4x      |                 |                  |
|    Verse 4x      |    Verse  4x    |  Verse Solo 4x   |
|    Verse 4x      |                 |                  |
|   Pre-Chorus 2x  |  Pre-Chorus 2x  |  (weird noises)  |
|    Chorus 4x     |   Chorus 4x     |  Verse Solo 4x   |
|    Bridge 1      |    Bridge 1     |                  |
|    Bridge 2      |    Bridge 2     |                  |
|    Bridge 3      |    Bridge 3     |                  |
|    Bridge 1      |    Bridge 1     |                  |
|    Verse 4x      |                 |       Solo       |
|  Interlude 1 4x  |                 |                  |
|  Interlude 2     |  Interlude 2    |                  |
|   Pre-Chorus 2x  |  Pre-Chorus 2x  |  (weird noises)  |
|    Chorus 4x     |   Chorus 4x     |  Verse Solo 4x   |
|    Verse 4x      |    Verse  4x    |  Verse Solo 4x   |
|    Bridge 1      |                 |                  |
| ---------------- | --------------- | ---------------- |


Guitar 1 is swichted between 'kick-ass-distortion' and Crunch. (Crunch only during 
1).
Guitar 2 is always on 'kick-ass-distortion' and a little louder than Guitar 1.
Guitar 3 is the solo guitar. Use a distorted channel for the Verse Solo and a clean 
for the solo. In the actual
         recording the solo is played by a spanish nylon guitar.

Please excuse all those 'weird sound' notes. I just don't know how to tab that stuff! ^^

I hope you like my tab anyways. I'd appreciate any comments or corrections. Send em to 
eMail adress. Please use the
predefined subject, or else I will delete the mail without reading.
Добавлено: 23.07.2012
Другие материалы по этой песне:

Страница создана 25.05.2012
http://primanota.ru/gackt/lu-na-chords.htm
Привет, Гость.
Предлагаем пройти революционный курс по гитаре.
Подарок от PrimaNota.Ru, забирай!