PrimaNota.ru - самый крупный в мире бесплатный архив песенных текстов, аккордов, табулатур и нот


Fugazi - Burning Too - текст песни, таба, видео

Регистрация Запомнить меня
Войти через:  Facebook Google Twitter Vk Yandex Mail.ru

Fugazi - Burning Too - текст песни, таба, видео

Печатать
Просмотров: 135
"Burning Too"
Fugazi
Fugazi LP/ 13 songs cd

Only Ian was playing guitar at this time, thus there is only one guitar part....Enjoy

Intro
e---------------------|
B---------------------|
G-7-9---9-------------|
D-7-9-9-9-------------|
A-5-7-9-7-------------|
E-----7-7-------------|

Verses(0:15)
Palm Muted
e---------------------------------|
B---------------------------------|
G-----------------------------9-9-|
D-----------------------------x-x-|
A-5-5-5-7-7-7-7-------7--7----7-7-|
E---------------7-7-7--7--7-------|

Chorus(0:45)
e------------------|
B------------------|
G-6--4-------------|
D-x--x-------------|
A-4--2-------------|
E------------------|

Post-Chorus(1:05)(this is the only part i'm not 100% sure on...but it sounds like:)
e-----------------|
B-0---------------|
G-0---------------|
D-2---------------|
A-2---------------|
E-2---------------|

Bridge(2:05):
e------/-----19------|
B-0----/-----x-------|
G-0----/-----x-------|
D-2----/-------------|
A-2----/-------------|
E-2--0---------------|

The Outro(2:20) sounds like the verse being played then a D5 octave comes in at 2:29
e-----------------|
B-----------------|
G-7---------------|
D-x---------------|
A-5---------------|
E-----------------|

DO IT!

this one is pretty simple, but it's still really cool and it's also one of my favorite 
songs!
have fun.

e-mail me at jaggedpulpslicedinmyveins@yahoo.com for more Fugazi Tabs
Добавлено: 22.02.2012
Другие материалы по этой песне:
  • Аккорды и текст

Страница создана 22.02.2012
http://primanota.ru/fugazi/burning-too-chords.htm
Привет, Гость.
Предлагаем пройти революционный курс по гитаре.
Подарок от PrimaNota.Ru, забирай!