PrimaNota.ru - самый крупный в мире бесплатный архив песенных текстов, аккордов, табулатур и нот


From First To Last - Such A Tragedy - текст песни, таба, бас-таба, видео

Регистрация Запомнить меня
Войти через:  Facebook Google Twitter Vk Yandex Mail.ru

From First To Last - Such A Tragedy - текст песни, таба, бас-таба, видео

Печатать
Просмотров: 151
(((THE FIRST ONE I SUBMITTED HAD AN INCORRECT INTRO))))

Such a Tragedy
From First to Last
"Aesthetics"
Tabbed By: JJ Murphy
Tuning: Drop C ;; CGCFAD

Most of the song is the same as the verse, so if I left out a part, the part missing is 
covered under one of the verse or something


intro  (guitar 1)

|-6p-4p-------               -6p-7p-6p-4p-6p-7p-6p---|
|-------6p-4p-               ---------------------4p-|
|-------------               ------------------------|
|-------------               ------------------------|
|-------------    till 0:15  ------------------------|
|-------------               ------------------------|

(guitar 2)

                             |----------|
                             |----------|
Slide at 0:04  /////    0:20 |-10-10--8-|
                             |-10-10--8-|
                             |-8--8---6-|
                             |----------|

#########################################################

verse (guitar 1)

     |-------------|
     |-------------|
0:23 |-8~ -6~ -4~ -|  X2
     |-8~ -6~ -4~ -|
     |-6~ -4~ -2~ -|
     |-------------|

verse (guitar 2)


// I dont think the second guitar does anything at all,
but it sounds fuller if it do you do it anyway.

       |-------|
       |-------|
0:39   |-8-8-8-|
       |-8-8-8-|
       |-6-6-6-|
       |-------|

#########################################################

Chorus (guitar 1)

|---------------------------------------------|
|---------------------------------------------|
|-8-8-8-8-8-8-8-8-6-6-6-6-6-6-6-4-4-4-4-4-4-4-|
|-8-8-8-8-8-8-8-8-6-6-6-6-6-6-6-4-4-4-4-4-4-4-|
|-6-6-6-6-6-6-6-6-4-4-4-4-4-4-4-2-2-2-2-2-2-2-|
|---------------------------------------------|

I'd rather seeeeee youuuuuuu-uuuuuuuu....

     |-------------|
     |-------------|
     |-8~ -6~ -4~ -|
     |-8~ -6~ -4~ -|
     |-6~ -4~ -2~ -|
     |-------------|

then repeat

|---------------------------------------------|
|---------------------------------------------|
|-8-8-8-8-8-8-8-8-6-6-6-6-6-6-6-4-4-4-4-4-4-4-|
|-8-8-8-8-8-8-8-8-6-6-6-6-6-6-6-4-4-4-4-4-4-4-|
|-6-6-6-6-6-6-6-6-4-4-4-4-4-4-4-2-2-2-2-2-2-2-|
|---------------------------------------------|


     |-------------|
     |-------------|
     |-8~ -6~ -4~ -|
     |-8~ -6~ -4~ -|
     |-6~ -4~ -2~ -|
     |-------------|

Chorus (guitar 2)

|-----------------------|
|-----------------------|
|-----------------------|
|-888888866666664444444-
|-888888866666664444444-
|-888888866666664444444-

|-------------|
|-6p0hx-6p0hx-|
|-----8-----6-|
|-----8-----6-|
|-----6-----4-|
|-------------|


#########################################################

Verse 2 (guitar 1)

verse (guitar 1)

     |-------------|
     |-------------|
     |-8~ -6~ -4~ -|  X2
     |-8~ -6~ -4~ -|
     |-6~ -4~ -2~ -|
     |-------------|

verse (guitar 2)


// I dont think the second guitar does anything at all,
but it sounds fuller if it do you do it anyway.

       |-------|
       |-------|
       |-8-8-8-|
       |-8-8-8-|
       |-6-6-6-|
       |-------|

//TRANSITION BETWEEN VERSES/CHORUS/ETC:

|-     6p 4p
|-6p 4p
|-------------


Solo (guitar 1)

|--------------------------|
|---6--6--7--7--8--8--9--9-|
|-88-88-88-88-88-88-88-88--|
|--------------------------|
|--------------------------|
|--------------------------|

ending solo (guitar ?) (I grouped this in with the other solo ;D)

|----------------------------------------------------------|
|----------------------------------------------------------|
|------10-----10-----11-----11-----12-----12-----13-----14-|
|-13-13--13-13--13-13--13-13--13-13--13-13--13-13--13-13---|
|----------------------------------------------------------|
|----------------------------------------------------------|

#########################################################

Outro

same as guitar 1 verse; then add this

|---------|
|---------|
|---------|
|-6-6--4--|
|-6-6--4--|
|-6-6--4--|

Guitar 2:

play the 2nd part of the intro!
Добавлено: 23.04.2012
Другие материалы по этой песне:

Страница создана 23.03.2012
http://primanota.ru/from-first-to-last/such-a-tragedy-chords.htm
Привет, Гость.
Предлагаем пройти революционный курс по гитаре.
Подарок от PrimaNota.Ru, забирай!