PrimaNota.ru - самый крупный в мире бесплатный архив песенных текстов, аккордов, табулатур и нот


From First To Last - We All Turn Back To Dust - текст песни, таба, видео

Регистрация Запомнить меня
Войти через:  Facebook Google Twitter Vk Yandex Mail.ru

From First To Last - We All Turn Back To Dust - текст песни, таба, видео

Печатать
Просмотров: 134
Уроки эстрадного вокала в Санкт-Петербурге
Tabbed by: Zero
E-mail: Guitar_junkie_0912@yahoo.com

Half step Down

IntroGUitar 1 (palm mute this whole thing)
e|----------------------------|     |-------------------------------|
b|-----0-2-0-------0-2-0------|     |--------0-2-0---0---0---0------|
g|---2-------2---2-------2----|x2   |------2-------2---2---2---2----|
d|-4-----------4-----------4--|     |-------------------------------| x4
a|----------------------------|     |----0--------------------------|
d|----------------------------|     |-------------------------------|

Repeat all of that^

Intro Guitar 2 (not palmed)
e|--------------------------------|    |------------------------------|
b|-----0-2-0-------0-2--0---------|    |-----0-2-0---0---0---0--------|
g|---2-------2---2--------2-------|    |---2-------2---2---2---2------|
d|-4-----------4------------4-----| x2 |------------------------------| x4
a|--------------------------------|    |-0----------------------------|
d|--------------------------------|    |------------------------------|

Repeat

Verse
e|----------------------------------------------|
b|----------------------------------------------|
g|----------------------------------------------|
d|--44-0-44-0-44-0-44-0-44-0-44-0-22-0-22-0-----|
a|--44-0-44-0-44-0-44-0-44-0-44-0-22-0-22-0-----|
d|--44-0-44-0-44-0-44-0-44-0-44-0-22-0-22-0-----|

e|-------------------------------------------------|
b|-------------------------------------------------|
g|-------------------------------------------------|
d|-77-0-77-0-77-0-77-0-77-0-77-0-77-0-22-0-22-0----|
a|-77-0-77-0-77-0-77-0-77-0-77-0-77-0-22-0-22-0----|
d|-77-0-77-0-77-0-77-0-77-0-77-0-77-0-22-0-22-0----|

Pre Chorus watch for the ryhthms, they're not that hard
e|---------------|----------|-------------------|
b|---------------|----------|-------------------|
g|-/11-11--------|---/14-14-|--77-7--44444------|
d|---------------|----------|--77-7--44444------|
a|-/-9--9--------|---/12-12-|--55-5--22222------|
d|---------------|----------|-------------------|

Chorus Guitars 1 and kinda 2
e|----------------------------------------------|
b|----------------------------------------------|
g|----------------------------------------------|
d|-444444444444-----------------000000000000----|
a|-444444444444-----222-----000-000000000000----|
d|-444444444444-444-----222-----000000000000----|

e|--------------------------------------------------|
b|--------------------------------------------------|
g|--------------------------------------------------|
d|--444444444444-----------------000000000000-------|
a|--444444444444-----222---------000000000000-------|
d|--444444444444-222-----000-777-000000000000-------|

Chorus Guitar 2
after you play the 4's and you get to the Db,
play this little fill
e|-------------|
b|-------------|
g|-4/6/7/9/11--|
d|-------------|
a|-------------|
d|-------------|

Repeat Verse
Repeat Pre Chorus
Repeat Chorus

Bridge
e|--------------------------------|
b|--------------------------------|
g|--------------------------------|
d|-2h4-4-2h4-4-2h4-4-77777777-----|
a|-2h4-4-2h4-4-2h4-4-77777777-----|
d|-2h4-4-2h4-4-2h4-4-77777777-----|

Repeat Intro except for when the distortion comes back in
e|------------------------------|
b|------------------------------|
g|------------------------------|
d|-777777777-2-22-22-22---------|
a|-777777777-2-22-22-22---------|
d|-777777777-2-22-22-22---------|
               .  .  .

Repeat Chorus
e|----------17---17-16-17-16-14----|
b|-14-15-14---14-------------------|
g|---------------------------------|
d|---------------------------------|
a|---------------------------------|
d|---------------------------------|

e|----------------------------------------------------------------------|
b|----------------------------------------------------------------------|
g|----------------------------------------------------------------------|
d|-444444444444444444-2222222-7777777777777777777777-222222-------------|
a|-444444444444444444-2222222-7777777777777777777777-222222-------------|
d|-444444444444444444-2222222-7777777777777777777777-222222-------------|

end on
e|----|-----|------|
b|----|-----|--15--|
g|----|-11--|------|
d|-4--|-----|------|
a|-4--|--9--|------|
d|-4--|-----|------|
Добавлено: 27.03.2012
Другие материалы по этой песне:

Страница создана 27.03.2012
http://primanota.ru/from-first-to-last/we-all-turn-back-to-dust-chords.htm
Привет, Гость.
Предлагаем пройти революционный курс по гитаре.
Подарок от PrimaNota.Ru, забирай!