PrimaNota.ru - самый крупный в мире бесплатный архив песенных текстов, аккордов, табулатур и нот


From First To Last - Waves Goodbye - текст песни, таба, видео

Регистрация Запомнить меня
Войти через:  Facebook Google Twitter Vk Yandex Mail.ru

From First To Last - Waves Goodbye - текст песни, таба, видео

Печатать
Просмотров: 155
Уроки эстрадного вокала в Санкт-Петербурге
-----------------------------|
-----------------------------|
-----------------------------|                x 2
---0---3---------------------|
-1---1-----1----------3---3--|
-------------3------5---5----|

-----------------------------|
-----------------------------|
-----------------------------|
-----------------------------|
---3--6--3--------3--5-------|
-4--4------4----3--3---------|

-----------------------------|
-----------------------------|
-----------------------------|
------------------------3----|
---3--6--3--------3--5-------|
-4--4------4----3--3---------|


main riff throught the whole song

amazing new cd!
Добавлено: 27.03.2012
Другие материалы по этой песне:

Страница создана 02.03.2012
http://primanota.ru/from-first-to-last/waves-goodbye-chords.htm
Привет, Гость.
Предлагаем пройти революционный курс по гитаре.
Подарок от PrimaNota.Ru, забирай!