PrimaNota.ru - самый крупный в мире бесплатный архив песенных текстов, аккордов, табулатур и нот


From First To Last - Ride The Wings Of Pastilance - таба

Регистрация Запомнить меня
Войти через:  Facebook Google Twitter Vk Yandex Mail.ru

From First To Last - Ride The Wings Of Pastilance - таба

Печатать
Просмотров: 68
Уроки эстрадного вокала в Санкт-Петербурге
so i noticed their aren't any tabs that have the fills of this song so i worked 
with it and im gonna tab it for yall.

Tabbed by Brandon Bushnell

Drop D Tuning (DADGBE)


Intro

E|---------------------------------------------------|
B|--8888-------8888------10101010------11111111------|
G|-------7777-------7777----------7777----------7777-|
D|---------------------------------------------------|
A|---------------------------------------------------|
D|---------------------------------------------------|

      The Lead Guitr Goes Into This While The Rhythem Keeps Playing The First Part
E|----------------8-----------|--8-----------------|
B|--8-8-888-10-88---11-10-8-3x|----11-10-8-like 6x-|
G|----------------------------|--------------------|
D|----------------------------|--------------------|
A|----------------------------|--------------------|
D|----------------------------|--------------------|

    Verse Both Guitars
E|---------------------------------------------------|
B|---------------------------------------------------|
G|---------------------------------------------------|
D|--555-5-5-5555--5555-5555--111-1-1-1111--1111-1111-|
A|--555-5-5-5555--5555-5555--111-1-1-1111--1111-1111-|
D|--555-5-5-5555--5555-5555--111-1-1-1111--1111-1111-|
            .... ....  ....          ....  .... ....

        Lead Guitar Only
E|--------------------------------|
B|--------------------------------|
G|----2-0----2-0---2-0------0-----|
D|------------------------3---3---| 2x
A|----------------------1-------1-|
D|--5------5-----5----------------|


E|-----------------------------------------|
B|-----------------------------------------|
G|-----------------------------------------|
D|--Rhythem Guitar Pick Slides Into Chorus-|
A|-----------------------------------------|
D|-----------------------------------------|

        Chorus Both Guitars
E|---------------------------------------------------------|
B|---------------------------------------------------------|
G|----------------555555-777777-8888888888-----------------|
D|--555555-111111-555555-777777-XXXXXXXXXX-----888-----777-|
A|--555555-111111-333333-555555-6666666666-----------------|
D|--555555-111111--------------------------000-----000-----|
                                           ...     ...

    Lead Guitar
E|--6666-5555------------------------------|
B|--8888-8888------8~----------------------|
G|------------------------8h10-8---7---7---|
D|-------------10~----10~--------9---9---9-|
A|-----------------------------------------|
D|-----------------------------------------|


E|------------------------------------------------|
B|------------------------------------------------|
G|------------------------------------------------|
D|--5555555--5555555--111111--111111--------------|
A|--5555555--5555555--111111--111111--1p0---------|
D|--5555555--5555555--111111--111111------3p0-0h1-|

 Lead Guitar Only
E|--------------------------------------------------------------------------
B|--------------------------------------------------------------------------
G|----2-0----2-0---2-0------0-------------12---------8-10-8---------8-10-10b
D|------------------------3---3--------10----10-------------10-8-10---------
A|----------------------1-------1----8----------8-2x------------------------
D|--5------5-----5-----------------8----------------------------------------


   pre Chorus   Both Guitars  
E|-------------------------------------------------------|
B|-------------------------------------------------------|
G|-------------------------------------------------------|
D|--5555555--5555555--5555555--5555555--5555555(5)555555-|
A|--5555555--5555555--5555555--5555555--5555555(5)555555-|
D|--5555555--5555555--5555555--5555555--5555555(5)555555-|


 Chorus Both Guitars
E|---------------------------------------------------------|
B|---------------------------------------------------------|
G|----------------555555-777777-8888888888-----------------|
D|--555555-111111-555555-777777-XXXXXXXXXX-----888-----777-|
A|--555555-111111-333333-555555-6666666666-----------------|
D|--555555-111111--------------------------000-----000-----|
                                           ...     ...

 Outro  The 8-12 Is A Chord do this til the end of the song
E|-------------------------|
B|--------8-8-8-8-8-8-8-8--|
G|-------12121212-12121212-|
D|--00-0-------------------|
A|--00-0-------------------|
D|--00-0-------------------|
    ..


well thats it when i play this with the song it matches up 100% right enjoy
Добавлено: 28.10.2013
Другие материалы по этой песне:

Страница создана 22.06.2012
http://primanota.ru/from-first-to-last/ride-the-wings-of-pastilance-chords.htm
Привет, Гость.
Предлагаем пройти революционный курс по гитаре.
Подарок от PrimaNota.Ru, забирай!