PrimaNota.ru - самый крупный в мире бесплатный архив песенных текстов, аккордов, табулатур и нот


From First To Last - Shame Shame - текст песни, таба, бас-таба, видео

Регистрация Запомнить меня
Войти через:  Facebook Google Twitter Vk Yandex Mail.ru

From First To Last - Shame Shame - текст песни, таба, бас-таба, видео

Печатать
Просмотров: 182
Tabbed by: DannyDisaster 
dannyfoshiz@yahoo.com

Tuning: Drop C

Tuning Insructions: Tune all strings down to drop d. Then, 
tune the E which is now D, down to C. So E is 3 steps down
and the rest of the guitar is 2 steps down. There you go. 
Not too hard. :) This song is fun and fairly easy to play.




Intro
d|-9----------------------|    |-----------------|
A|--10-9------------------|    |-----------------|
F|------11----------------| 3x |-----------------| 2x
C|--------12-11-----------|    |-----------11-12-|
G|-------------12-11------|    |------11-12------|
C|------------------12-11-|    |-11-12-----------|


You might want to do hammer ons on the second part of the intro..

1st Verse
d|--------------------------------------------------|
A|--------------------------------------------------|
F|--------------------------------------------------|
C|--------------------------------------------------|
G|--------------------------------------------------|
C|-444444444444444444444444222222222222777777000000-|


You can also tremolo pick this. It's fun.

Pre-chorus
d|---------------------------------------------------------|
A|-------333333------222222--------------------------------|
F|---------------------------------------------------------| 2x
C|---------------------------------------------------------|
G|-----------------------------4h54h5---4h54h5-------------|
C|444444-------444444------4h5------4h5-------777777333333|

Almost all of these notes are tremolo picked.

Chorus
d|-4444555544445555-5--4----4-455--4----4-45-|    |-5~-|
A|-------------------77-7767-7---77-7767-7---|    |----|
F|-------------------------------------------| 2x |----|
C|-------------------------------------------|    |----|
G|-------------------------------------------|    |----|
C|-------------------------------------------|    |----|

The notes on d are tremolo picked.



2nd verse - pt. 2
                  d|-9-----------|
                  A|--10-9--9-10-|
                  F|------11-----| 16x
[Short Rest]      C|-------------|
                  G|-------------|
                  C|-------------|

the notes on d are hammer ons.

Bridge
d|--454545454545343434343434----------------------|
A|------------------------------------------------|
F|------------------------------------------------|
C|---------------------------4xxxx4xxxx4xxxx4xxxx-|
G|---------------------------4xxxx4xxxx4xxxx4xxxx-|
C|---------------------------4xxxx4xxxx4xxxx4xxxx-|

d|-454545454545343434343434---------------------|
A|----------------------------------------------|
F|----------------------------------------------|
C|-------------------------4xxxx4xxxx4xxxx4-4-4-|
G|-------------------------4xxxx4xxxx4xxxx4-4-4-|
C|-------------------------4xxxx4xxxx4xxxx4-4-4-|

d|-----------------------------------------------|
A|-----------------------------------------------|
F|-----------------------------------------------|
C|-4xxxxxxxxxx4xxxx4xxxx4xxxxxxxxxx4xxxx3xxx0-0-0|
G|-4xxxxxxxxxx4xxxx4xxxx4xxxxxxxxxx4xxxx3xxx0-0-0|
C|-4xxxxxxxxxx4xxxx4xxxx4xxxxxxxxxx4xxxx3xxx0-0-0|

The strumming may be a tiny little bit off, but i think you can figure it out.

The outro i am yet to figure out. Sorry. :/ 

Definitely email me feedback. Hatemail, love it, whatever..


Here are the order and times the riffs are played:


-Intro
-1st Verse
-Pre-Chorus
-Chorus
-2nd Verse
-Chorusx2
-Bridge
-Intro
-Chorusx4


Добавлено: 02.03.2012
Другие материалы по этой песне:

Страница создана 02.03.2012
http://primanota.ru/from-first-to-last/shame-shame-chords.htm
Привет, Гость.
Предлагаем пройти революционный курс по гитаре.
Подарок от PrimaNota.Ru, забирай!