PrimaNota.ru - самый крупный в мире бесплатный архив песенных текстов, аккордов, табулатур и нот


Free - Ride On A Pony - текст песни, таба, бас-таба, видео

Регистрация Запомнить меня
Войти через:  Facebook Google Twitter Vk Yandex Mail.ru

Free - Ride On A Pony - текст песни, таба, бас-таба, видео

Печатать
Просмотров: 197
Artist: Free
Song: Ride On A Pony
Album: Highway

Tuning: EADGBe (Standard)

Intro/Verses:
E--------------------|
B--------------------|
G--------------------|
D--2-2----------2----|
A--2-2------2-4---4--|
E--0-0--2/4----------|

E--------------------|
B--------------------|
G--2-2----------2----|
D--2-2------2-4---4--|
A--0-0--2/4----------|
E--------------------|

E-------------------------------5--|
B----------------------------7--5--|
G----------------------------7--6--|
D--9--9------9----9----------7--7--|
A--9--9--11--9----9--11--11--5--7--|
E--7--7---7--7----7---7---7-----5--|

Pre-Chorus:
E			 A
I'm gonna steal you baby away with me
E
I want to love you
A
Because you see

Chorus:

Guitar 1
E		 B
I am riding on a pony
D		     A
In the middle of the night
E			  B
I'm gonna be there in the morning
D			 A
And I hope that it's all right

Guitar 2				    **
E------------------------------------------------------|
B---------------------------------------------5-5------|
G--9------9----------------7-----7----------4h6-4------|
D--9------9h11p9--------9--7-----7h9p7------------6-4--|
A--7-9/11--------11--9--9--5-7/9-------9--7------------|
E--------------------11-7-----------------9------------|

E-----------------------------------------5------|
B-----------------------------------------5------|
G--9------9----------------7-----7--------6------|
D--9------9h11p9--------9--7-----7h9p7----7------|
A--7-9/11--------11--9--9--5-7/9-------9--7------|
E--------------------11-7-----------------5------|

**It sounds like a third guitar plays this fill, but it can be easily incorporated in
second guitar part.

Solo Rhythm:
E (x4 measures)
B (x2 measures)
A (hold chord for 2 measures)
E  B  D  A
E  B  D  A
E  B  D  A
E  B  D  A

All chords are barred, as opposed to open.
Добавлено: 03.05.2012
Другие материалы по этой песне:
  • Аккорды и текст

Страница создана 03.05.2012
http://primanota.ru/free/ride-on-a-pony-chords.htm
Привет, Гость.
Предлагаем пройти революционный курс по гитаре.
Подарок от PrimaNota.Ru, забирай!