PrimaNota.ru - самый крупный в мире бесплатный архив песенных текстов, аккордов, табулатур и нот


Free - Fire And Water - аккорды и текст, таба, бас-таба, видео

Регистрация Запомнить меня
Войти через:  Facebook Google Twitter Vk Yandex Mail.ru

Free - Fire And Water - аккорды и текст, таба, бас-таба, видео

Печатать
Просмотров: 294
Авторы: Paul Rodgers, Andy Fraser

Fire And Water
Free
By: Free
Tab by: Joe Lovell

This band definitely doesn't get enough credit, but I guess if you're reading this, you probably know more than just 'Alright Now'. Go tell everyone.

My tabbing skills are shite, but you'll get the idea.

Verse

E|----------------|----------------|----------------|----------------|
B|----------------|----------------|----------------|----------------|
G|--4-4-4-4-------|--4-4-4-4-------|--7-7-7-7-------|--4-4-4-4-------|
D|0-4-4-4-4-------|0-4-4-4-4-------|2-7-7-7-7-------|0-4-4-4-4-------|
A|0-2-2-2-2-------|0-2-2-2-2-------|2-5-5-5-5-------|0-2-2-2-2-------|
E|----------------|----------------|----------------|----------------|

E|----------------|----------------|----------------|----------------|
B|----------------|----------------|----------------|----------------|
G|--4-4-4-4-------|--4-4-4-4-------|--7--9---2--4---|--4-4-4-4-------|
D|0-4-4-4-4-------|0-4-4-4-4-------|--7--9---2--4---|0-4-4-4-4-------|
A|0-2-2-2-2-------|0-2-2-2-2-------|--5--7---0--2---|0-2-2-2-2-------|
E|----------------|----------------|----------------|----------------|

Chorus

E|----------------|----------------|----------------|----------------|
B|----------------|----------------|----------------|----------------|
G|-4-----4--------|-7-----7--------|-9-----9---999--|----------------|
D|-4-----4--------|-7-----7--------|-9-----9---999--|-9------9-------|
A|-2-----2--------|-5-----5--------|-7-----7---777--|-9------9-------|
E|----------------|----------------|----------------|-7------7-------|

E|----------------|----------------|----------------|----------------|
B|----------------|----------------|----------------|----------------|
G|-9-----9--------|-7-----7--------|-9-----7-----2--|-4--------------|
D|-9-----9--------|-7-----7--------|-9-----7-----2--|-4--------------|
A|-7-----7--------|-5-----5--------|-7-----5-----0--|-2--------------|
E|----------------|----------------|----------------|----------------|


Lyrics

Every single day
I gotta heartache coming my way
I don't wanna say goodbye
But look at the tears in my eyes
I don't wanna say goodbye
But look at the way you made me cry
Every way that's nice
You show you gotta heart that's made of ice

Fire and Water
Have made you their daughter
You've got what it takes
To make a poor man's heart break
Poor man's heart break

Baby you turn me
But quick as a flash you're love is gone
Baby I'm gonna leave you now
But I'm gonna try and make you grieve somehow
Добавлено: 31.05.2012
Другие материалы по этой песне:

Страница создана 20.04.2012
http://primanota.ru/free/fire-and-water-chords.htm
Привет, Гость.
Предлагаем пройти революционный курс по гитаре.
Подарок от PrimaNota.Ru, забирай!