PrimaNota.ru - самый крупный в мире бесплатный архив песенных текстов, аккордов, табулатур и нот


Fountains Of Wayne - '92 Subaru - текст песни, таба, видео

Регистрация Запомнить меня
Войти через:  Facebook Google Twitter Vk Yandex Mail.ru

Fountains Of Wayne - '92 Subaru - текст песни, таба, видео

Печатать
Просмотров: 156
Авторы музыки: Adam Schlesinger
Авторы текста: Adam Schlesinger
hey there people! this is the first version of 92 Subaru..hope you guys like it. the 
parts should be 99% right..the lead parts should be very similar to the track. give this a 
guys..and please rate and comment :p enjoy!


Intro
e|-----------------|
B|-----22----------|
G|--5--22--5--77---|  x4
D|--5--00--5--77---|
A|--3------3--55---|
E|-----------------|
Lead
E---------------------------------------------------|
B--------------------10-7-5-------------------------|
G-11b-11b-11p9-7-10b--------7---5b-5b-5p4-----------|
D-----------------------------------------5-0-5-0~--|
A---------------------------------------------------|
E---------------------------------------------------|

Verse 1
e|-----------------|
B|-----22----------|
G|--5--22--5--77---|
D|--5--00--5--77---|  x7
A|--3------3--55---|
E|-----------------|

Verse1  Lead parts

Fellas just you wait..
E----------|
B----------|
G-11-7-6b--|
D----------|
A----------|
E----------|

For convenience sake..
E------9-10b-----------|
B---8b-----------------|
G----------------------|
D----------------------|
A----------------------|
E----------------------|

Pre Chorus
e|---------------|
B|---------------|
G|---------------|
D|--222222--5----|
A|--222222--5----|
E|--000000--3----|

Chorus
e|-----------------|
B|-----------------|
G|--5--------------|  x3
D|--5--77--2--55---|
A|--3--77--2--55---|
E|-----55--0--33---|

Late 92 baby blue..
e|----------------|
B|----------------|
G|--3-33----------|
D|--3-33--33-555--|
A|--1-11--33-555--|
E---------11-333--|

Intro

Lead
E-------------9b~--|
B--8-10-10b-8------|
G------------------|
D------------------|
A------------------|
E------------------|

Verse2

Chorus

Solo
E------------------------------------------------------------9b-9b--|
B-----------------------------8-8--8-------------8------------------|
G------------------------11p7--------7-11-7h11p7---7-11-11-7--------|
D-------------------------------------------------------------------|
A-------------------------------------------------------------------|
E--3-0-4-4-3-0-3-5-0-0----------------------------------------------|

E----------------------------------|
B-8b-8b-8b-8b88888-8h10p8----------|
G-------------------------10-7-10--|
D----------------------------------|
A----------------------------------|
E----------------------------------|

E----------------------|
B----------------------|
G-10-9-7-5-5-5h6-5-5b~-|
D----------------------|
A----------------------|
E----------------------|

Pumping in oxygen..
e|---------------------------|
B|---------------------------|
G|--7--5--3---3-33-------7---|
D|--7--5--3---3-33--3-33-7---|  x6
A|--5--3--1---1-11--3-33-5---|
E|------------------1-11-----|

c'mon sugar lets roll!
e|------|
B|------|
G|--3~--|
D|--3~--|
A|--1~--|
E-------|

Chorus
Chorus lead part

In my late 92..
E----------------------|
B----------------------|
G-10-9-7-5-5-5h6-5-5b~-|
D----------------------|
A----------------------|
E----------------------|

E-------------------------------------|
B------------------12-10--------------|
G-10b-10b-10b-10b~-------12-10-12-10--|
D-------------------------------------|
A-------------------------------------|
E-------------------------------------|

E---------------------------------------|
B---------------------------------------|
G-10b-10b-10b-10b~-12p10----------------|
D------------------------12-10-10-12-10-|
A---------------------------------------|
E---------------------------------------|

E-------------------------------------|
B------------------12-10--------------|
G-10b-10b-10b-10b~-------12-10-12-10--|
D-------------------------------------|
A-------------------------------------|
E-------------------------------------|

Late 92 baby blue
E-----------------------------|
B-----------------------------|
G—10-10h12p10-----------------|
D-------------12-12-10-10-12--|
A-----------------------------|
E-----------------------------|
Subaru!
E--------------|
B--------------|
G—---10-12s0---|
D-12-----------|
A--------------|
E--------------|

End on (rhythm)
E-------|
B-------|
G-------|
D--555--|
A--555--|
E--333--|
Добавлено: 09.08.2013
Другие материалы по этой песне:
  • Аккорды и текст

Страница создана 01.06.2012
http://primanota.ru/fountains-of-wayne/92-subaru-chords.htm
Привет, Гость.
Предлагаем пройти революционный курс по гитаре.
Подарок от PrimaNota.Ru, забирай!