PrimaNota.ru - самый крупный в мире бесплатный архив песенных текстов, аккордов, табулатур и нот


Fountains Of Wayne - Denise - аккорды и текст, таба, видео

Регистрация Запомнить меня
Войти через:  Facebook Google Twitter Vk Yandex Mail.ru

Fountains Of Wayne - Denise - аккорды и текст, таба, видео

Печатать
Просмотров: 86
Авторы: Adam Schlesinger, Chris Collingwood

Denise
Fountains Of Wayne
Fountains of wayne-Denise
Album-Utopia parkway

Tabbed by:M.Santry

Ive found this song sounds much better tuned down half a step!!

This song is so cool. But very simple to play. Id tabbed it with in 5 
minutes of hearing the song.Its all my own work. Email with corrections to:
Peanut_butter_wolf_uk@hotmail.com

Tuning: half a step down. Eb Ab Db Gb Bb eb

Intro (x2)

e--------------------------------------------------------
B--------------------------------------------------------
G------------11-11------12-12-12-12----------------------
D-9-9--------11-11------12-12-12-12-------12-12-12-------
A-9-9--------9--9-------10-10-10-10-------12-12-12-------
E-7-7--------9--9-------10-10-10-10-------10-10-10-------

Verse(x4)

e--------------------------------------------------------
B--------------------------------------------------------
G------------11-11------12-12-12-12----------------------
D-9-9--------11-11------12-12-12-12-------12-12-12-------
A-9-9--------9--9-------10-10-10-10-------12-12-12-------
E-7-7--------9--9-------10-10-10-10-------10-10-10-------

Pre chorus (x3)        On end of third time play (x2)
e------------------------|------------------------------------
B------------------------|------------------------------------
G----------7-7------9----|--------11--(x8)---12-(x8)----------
D-5-5------7-7------9----|--------11---------12---------------
A-5-5------5-5------7----|--------9----------10---------------
E-3-3------5-5------7----|--------9----------10---------------

Chorus
e-----------------------------------------------------------
B-----------------------------------------------------------
G-7-7-7-7-7-7-7-7-------------------------------------------
D-7-7-7-7-7-7-7-7----5-5-5-5-5-5-5-5-----9-9-9-9----5-5-5-5-
A-5-5-5-5-5-5-5-5----5-5-5-5-5-5-5-5-----9-9-9-9----5-5-5-5-
E-5-5-5-5-5-5-5-5----3-3-3-3-3-3-3-3-----7-7-7-7----3-5-5-3-

VERSE (X6)

PRE CHORUS

CHORUS(X3)

Then the verse is played with this over the top

e---------------------------- (X3)
B----------------------------
G----------------------------
D-9-9----7-7---9-11-9-7-9v---
A----------------------------
E----------------------------

Then the chorus is played with this over the top 4 or 5 times.

e-----------------------------------
B-----------------------------------
G------11------7-------11-12-9------
D-9----------9---9-7-9--------------
A-----------------------------------
E-----------------------------------

Then the outro is just:

e----------------------------------
B----------------------------------
G----------------------------------
D-9-9----11-11--12-12--------------
A-9-9----11-11--12-12--------------
E-7-7----9--9---10-10--------------

Thats about it.....remember any corrections email me.
     
Добавлено: 28.11.2013
Другие материалы по этой песне:

Страница создана 20.03.2012
http://primanota.ru/fountains-of-wayne/denise-chords.htm
Привет, Гость.
Предлагаем пройти революционный курс по гитаре.
Подарок от PrimaNota.Ru, забирай!