PrimaNota.ru - самый крупный в мире бесплатный архив песенных текстов, аккордов, табулатур и нот


Fountains Of Wayne - Welcome Interstate Managers - таба, видео

Регистрация Запомнить меня
Войти через:  Facebook Google Twitter Vk Yandex Mail.ru

Fountains Of Wayne - Welcome Interstate Managers - таба, видео

Печатать
Просмотров: 111
Now I didn't do any of these songs,
(except for bought for a song), I just
took all the good tabs and put them
together because there isn't a welcome
interstate managers tab on this site.
There is no Halley's Waitress tab though.




1.) Stacy's Mom

Tabbed by: Liberty Spiked

Intro:
e|----------------------------------0-|
B|-----------------|----------------0-|
G|-----------------|------------------|
D|-----------------|------------------|
A|-2-2-2-7-7-7-7-7-|---6-7--7-7-7-7---|
E|-0-0-0-5-5-5-5-5-|-7------5-5-5-5---| (play 6 times)
   ********************************
3rd thru 6th time repeat: stacy's mom, has got it going on

Verse:
e|-----------------|-----------------|-----------------|---------------0-|
B|-----------------|-----------------|-----------------|---------------0-|
G|-----------------|-----------------|-----------------|-----------------|
D|-----------------|-----------------|-----------------|-----------------|
A|-2-2-2-7-7-7-7-7-|---6-7-7-7-7-7-7-|-2-2-2-7-7-7-7-7-|---6-7-7-7-7-7---|
E|-0-0-0-5-5-5-5-5-|-7-----5-5-5-5-5-|-0-0-0-5-5-5-5-5-|-7-----5-5-5-5---|
  ********************************************************************
  stacy can I come over after scho-o-o-o-l?              (after school)

e|-----------------|-----------------|-----------------|---------------0-|
B|-----------------|-----------------|-----------------|---------------0-|
G|-----------------|-----------------|-----------------|-----------------|
D|-----------------|-----------------|-----------------|-----------------|
A|-2-2-2-7-7-7-7-7-|---6-7-7-7-7-7-7-|-2-2-2-7-7-7-7-7-|---6-7-7-7-7-7---|
E|-0-0-0-5-5-5-5-5-|-7-----5-5-5-5-5-|-0-0-0-5-5-5-5-5-|-7-----5-5-5-5---|
   ********************************************************************
  we can hang around by the p-p-p-po-o-o-o-ool         (hang by the pool)

e|-----------------|-----------------|-----------------|---------------0-|
B|-----------------|-----------------|-----------------|---------------0-|
G|-----------------|-----------------|-----------------|-----------------|
D|-----------------|-----------------|-----------------|-----------------|
A|-2-2-2-7-7-7-7-7-|---6-7-7-7-7-7-7-|-2-2-2-7-7-7-7-7-|---6-7-7-7-7-7---|
E|-0-0-0-5-5-5-5-5-|-7-----5-5-5-5-5-|-0-0-0-5-5-5-5-5-|-7-----5-5-5-5---|
   ********************************************************************
  did your mom get back from her business trip?         (business trip)
e|-----------------|-----------------|-----------------|-----------------|
B|-----------------|-----------------|-----------------|-----------------|
G|-----------------|-----------------|-----------------|-----------------|
D|-----------------|-----------------|-----------------|-----------------|
A|-2-2-2-7-7-7-7-7-|---6-7-7-7-7-7-7-|-2-2-2-7-7-7-7-7-|---6-7-7-7-7-7-7-|
E|-0-0-0-5-5-5-5-5-|-7-----5-5-5-5-5-|-0-0-0-5-5-5-5-5-|-7-----5-5-5-5-5-|
   *****************************************************
  Is she there or is she trying to give me the sli-i-i-ip (give me the slip)

Prechorus:
e|-----------------|-----------------|-----------------|-----------------|
B|-----------------|-----------------|-----------------|-----------------|
G|-----------------|-----------------|-----------------|-------------r---|
D|-2-2-2-2-2-2-2-2-|-7-7-7-7-7-7-7-7-|-2-2-2-2-2-2-2-2-|-7-7-7-7-7---e---|
A|-2-2-2-2-2-2-2-2-|-7-7-7-7-7-7-7-7-|-2-2-2-2-2-2-2-2-|-7-7-7-7-7---s---|
E|-0-0-0-0-0-0-0-0-|-5-5-5-5-5-5-5-5-|-0-0-0-0-0-0-0-0-|-5-5-5-5-5---t---|
  You know I'm not the little boy     I'm all grown up now 
           That I used to be                        baby can't you see?
               

Chorus:
e|-0-0--0--0-0-0---|---------------|-0-0--0--0-0-0---|---------------|
B|-2-2--0--0-0-0-4-|-4-4-4---5--5--|-2-2--0--0-0-0-4-|-4-4-4---5--5--|
G|-2-2--1--1-1-1-4-|-4-4-4/6-6--6--|-2-2--1--1-1-1-4-|-4-4-4/6-6--6--|
D|-2-2--2--2-2-2-4-|-4-4-4---6--6--|-2-2--2--2-2-2-4-|-4-4-4---6--6--|
A|-0-0--2--2-2-2-2-|-2-2-2---4--4--|-0-0--2--2-2-2-2-|-2-2-2---4--4--|
E|------0--0-0-0---|---------------|------0--0-0-0---|---------------|

Stacy's mom has got it goin on, she's all I want and I've waited for so long

e|-0-0--0--0-0-0-0-|---------------|-----------------|---------------0-|
B|-2-2--0--0-0-0-0-|---------5--5--|-----------------|---------------0-|
G|-2-2--1--1-1-1-1-|-5-5-5---6--6--|-----------------|-----------------|
D|-2-2--2--2-2-2-2-|-4-4-4/6-6--6--|-7-7-7-7-7-7-7-7-|-9-9-9-9-9-9-9---|
A|-0-0--2--2-2-2-2-|-3-3-3---4--4--|-7-7-7-7-7-7-7-7-|-9-9-9-9-9-9-9---|
E|------0--0-0-0-0-|---------------|-5-5-5-5-5-5-5-5-|-7-7-7-7-7-7-7---|
  
  Stacy can't you see you're just   I know it might be wrong but
             not the girl for me,               I'm in love with stacy's mom

e|----------------------------------0-|-----------------|----------------0-|
B|-----------------|----------------0-|-----------------|----------------0-|
G|-----------------|------------------|-----------------|------------------|
D|-----------------|------------------|-----------------|------------------|
A|-2-2-2-7-7-7-7-7-|---6-7--7-7-7-7---|-2-2-2-7-7-7-7-7-|---6-7--7-7-7-7---|
E|-0-0-0-5-5-5-5-5-|-7------5-5-5-5---|-0-0-0-5-5-5-5-5-|-7------5-5-5-5---| 
   ********************************     ********************************
  Stacys mom has got it going on         Stacys mom has got it going on

Verse 2: (*another guitar enters)

e|-----0-------0---|-----0-------0---|-----0-------0---|-----0-------0---|
B|---0---0---2---2-|---4---4---2---2-|---0---0---2---2-|---4---4---2---2-|
G|---------2-------|-4-------2-------|---------2-------|-4-------2-------|
D|-2---------------|-----------------|-2---------------|-----------------|
A|-----------------|-----------------|-----------------|-----------------|
E|-----------------|-----------------|-----------------|-----------------|

e|-----------------|-----------------|-----------------|---------------0-|
B|-----------------|-----------------|-----------------|---------------0-|
G|-----------------|-----------------|-----------------|-----------------|
D|-----------------|-----------------|-----------------|-----------------|
A|-2-2-2-7-7-7-7-7-|---6-7-7-7-7-7-7-|-2-2-2-7-7-7-7-7-|---6-7-7-7-7-7---|
E|-0-0-0-5-5-5-5-5-|-7-----5-5-5-5-5-|-0-0-0-5-5-5-5-5-|-7-----5-5-5-5---|
  ********************************************************************
  stacy do you remember when I mowed your lawn?         (mowed your lawn)

e|-----0-------0---|-----0-------0---|-----0-------0---|-----0-------0---|
B|---0---0---2---2-|---4---4---2---2-|---0---0---2---2-|---4---4---2---2-|
G|---------2-------|-4-------2-------|---------2-------|-4-------2-------|
D|-2---------------|-----------------|-2---------------|-----------------|
A|-----------------|-----------------|-----------------|-----------------|
E|-----------------|-----------------|-----------------|-----------------|

e|-----------------|-----------------|-----------------|---------------0-|
B|-----------------|-----------------|-----------------|---------------0-|
G|-----------------|-----------------|-----------------|-----------------|
D|-----------------|-----------------|-----------------|-----------------|
A|-2-2-2-7-7-7-7-7-|---6-7-7-7-7-7-7-|-2-2-2-7-7-7-7-7-|---6-7-7-7-7-7---|
E|-0-0-0-5-5-5-5-5-|-7-----5-5-5-5-5-|-0-0-0-5-5-5-5-5-|-7-----5-5-5-5---|
   ********************************************************************
  Your mom came out with just a towel o-o-o-o-on        (towel on)

e|-----0-------0---|-----0-------0---|-----0-------0---|-----0-------0---|
B|---0---0---2---2-|---4---4---2---2-|---0---0---2---2-|---4---4---2---2-|
G|---------2-------|-4-------2-------|---------2-------|-4-------2-------|
D|-2---------------|-----------------|-2---------------|-----------------|
A|-----------------|-----------------|-----------------|-----------------|
E|-----------------|-----------------|-----------------|-----------------|

e|-----------------|-----------------|-----------------|---------------0-|
B|-----------------|-----------------|-----------------|---------------0-|
G|-----------------|-----------------|-----------------|-----------------|
D|-----------------|-----------------|-----------------|-----------------|
A|-2-2-2-7-7-7-7-7-|---6-7-7-7-7-7-7-|-2-2-2-7-7-7-7-7-|---6-7-7-7-7-7---|
E|-0-0-0-5-5-5-5-5-|-7-----5-5-5-5-5-|-0-0-0-5-5-5-5-5-|-7-----5-5-5-5---|
   ********************************************************************
  I could tell she liked me from the way she stared     (way she stared)

e|-----0-------0---|-----0-------0---|-----0-------0---|-----0-------0---|
B|---0---0---2---2-|---4---4---2---2-|---0---0---2---2-|---4---4---2---2-|
G|---------2-------|-4-------2-------|---------2-------|-4-------2-------|
D|-2---------------|-----------------|-2---------------|-----------------|
A|-----------------|-----------------|-----------------|-----------------|
E|-----------------|-----------------|-----------------|-----------------|

e|-----------------|-----------------|-----------------|-----------------|
B|-----------------|-----------------|-----------------|-----------------|
G|-----------------|-----------------|-----------------|-----------------|
D|-----------------|-----------------|-----------------|-----------------|
A|-2-2-2-7-7-7-7-7-|---6-7-7-7-7-7-7-|-2-2-2-7-7-7-7-7-|---6-7-7-7-7-7-7-|
E|-0-0-0-5-5-5-5-5-|-7-----5-5-5-5-5-|-0-0-0-5-5-5-5-5-|-7-----5-5-5-5-5-|
   *****************************************************
  N the way she said Ya missed a spot over the-e-e-e-re (spot over there)

Prechorus:
e|-----------------|-----------------|-----------------|-----------------|
B|-----------------|-----------------|-----------------|-----------------|
G|-----------------|-----------------|-----------------|-------------r---|
D|-2-2-2-2-2-2-2-2-|-7-7-7-7-7-7-7-7-|-2-2-2-2-2-2-2-2-|-7-7-7-7-7---e---|
A|-2-2-2-2-2-2-2-2-|-7-7-7-7-7-7-7-7-|-2-2-2-2-2-2-2-2-|-7-7-7-7-7---s---|
E|-0-0-0-0-0-0-0-0-|-5-5-5-5-5-5-5-5-|-0-0-0-0-0-0-0-0-|-5-5-5-5-5---t---|
  And I know that you think its just   But since your dad walked out your
                      a fantasy                 mom could use a guy like me

Chorus:
e|-0-0--0--0-0-0---|---------------|-0-0--0--0-0-0---|---------------|
B|-2-2--0--0-0-0-4-|-4-4-4---5--5--|-2-2--0--0-0-0-4-|-4-4-4---5--5--|
G|-2-2--1--1-1-1-4-|-4-4-4/6-6--6--|-2-2--1--1-1-1-4-|-4-4-4/6-6--6--|
D|-2-2--2--2-2-2-4-|-4-4-4---6--6--|-2-2--2--2-2-2-4-|-4-4-4---6--6--|
A|-0-0--2--2-2-2-2-|-2-2-2---4--4--|-0-0--2--2-2-2-2-|-2-2-2---4--4--|
E|------0--0-0-0---|---------------|------0--0-0-0---|---------------|

Stacy's mom has got it goin on, she's all I want and I've waited for so long

e|-0-0--0--0-0-0-0-|---------------|-----------------|---------------0-|
B|-2-2--0--0-0-0-0-|---------5--5--|-----------------|---------------0-|
G|-2-2--1--1-1-1-1-|-5-5-5---6--6--|-----------------|-----------------|
D|-2-2--2--2-2-2-2-|-4-4-4/6-6--6--|-7-7-7-7-7-7-7-7-|-9-9-9-9-9-9-9---|
A|-0-0--2--2-2-2-2-|-3-3-3---4--4--|-7-7-7-7-7-7-7-7-|-9-9-9-9-9-9-9---|
E|------0--0-0-0-0-|---------------|-5-5-5-5-5-5-5-5-|-7-7-7-7-7-7-7---|
  
  Stacy can't you see you're just   I know it might be wrong but
             not the girl for me,               I'm in love with stacy's mom

Solo: (note, the other guitar plays in the background -- 2nd line)
SOLOIST
e|----------------|----------------|------------------|------------------|
B|----------------|----------------|------------------|------------------|
G|-5h7/9-7--------|----------------|-5-7-9-7----------|------------------|
D|----------9-5-7-|-7-7-7-5-9--7-5-|----------9-5-7/9-|-9/10\9/10\9/10\9-|
A|----------------|----------------|------------------|------------------|
E|----------------|----------------|------------------|------------------|

BACKGROUND
e|-----------------|---------0-----|---------------|----------------|
B|-----------------|---------0-----|---------------|----------------|
G|-5-5-----------7-|-7-7-7/9-9-----|-5-5---------4-|-4-4-4-4-4--4-4-|
D|-5-5--5--5-5-5-7-|-7-7-7/9-9-----|-5-5--5--5-5-4-|-4-4-4-4-4--4-4-|
A|-3-3--5--5-5-5-5-|-5-5-5/7-7-----|-3-3--5--5-5-2-|-2-2-2-2-2--2-2-|
E|------3--3-3-3---|---------0-----|------3--3-3---|----------------|

SOLOIST
e|----------------|----------------|
B|----------------|----------------|
G|-5h7/9-7--------|----------------|
D|----------9-5-7-|-7-7-7-5-9--7-5-|
A|----------------|----------------|
E|----------------|----------------|

e|------------------------------|---------------------------|
B|-4/5\/4\5/4\5/4\5/4\5/4\5/4/8-|-8/9\8/9\8/9\8/9\8/9\8/9\8-|
G|------------------------------|---------------------------|
D|------------------------------|---------------------------|
A|------------------------------|---------------------------|
E|------------------------------|---------------------------|

BACKGROUND
e|-----------------|---------0-----|-------------|-------------|
B|-----------------|---------0-----|-------------|-------------|
G|-5-5-----------7-|-7-7-7/9-9-----|-5--5--5--5--|-4--4--4--4--|
D|-5-5--5--5-5-5-7-|-7-7-7/9-9-----|-5--5--5--5--|-4--4--4--4--|
A|-3-3--5--5-5-5-5-|-5-5-5/7-7-----|-3--3--3--3--|-2--2--2--2--|
E|------3--3-3-3---|---------0-----|-------------|-------------|

Chorus:
e|-0-0--0--0-0-0---|---------------|-0-0--0--0-0-0---|---------------|
B|-2-2--0--0-0-0-4-|-4-4-4---5--5--|-2-2--0--0-0-0-4-|-4-4-4---5--5--|
G|-2-2--1--1-1-1-4-|-4-4-4/6-6--6--|-2-2--1--1-1-1-4-|-4-4-4/6-6--6--|
D|-2-2--2--2-2-2-4-|-4-4-4---6--6--|-2-2--2--2-2-2-4-|-4-4-4---6--6--|
A|-0-0--2--2-2-2-2-|-2-2-2---4--4--|-0-0--2--2-2-2-2-|-2-2-2---4--4--|
E|------0--0-0-0---|---------------|------0--0-0-0---|---------------|

Stacy's mom has got it goin on, she's all I want and I've waited for so long

e|-0-0--0--0-0-0-0-|---------------|-----------------|-----------------|
B|-2-2--0--0-0-0-0-|---------5--5--|-----------------|-----------------|
G|-2-2--1--1-1-1-1-|-5-5-5---6--6--|-----------------|-----------------|
D|-2-2--2--2-2-2-2-|-4-4-4/6-6--6--|-7-7-7-7-7-7-7-7-|-9-9-9-9-9-9-9---|
A|-0-0--2--2-2-2-2-|-3-3-3---4--4--|-7-7-7-7-7-7-7-7-|-9-9-9-9-9-9-9---|
E|------0--0-0-0-0-|---------------|-5-5-5-5-5-5-5-5-|-7-7-7-7-7-7-7---|
  
  Stacy can't you see you're just   I know it might be wrong 
      not the girl for me,                      but I'm in love with 
             
e|-0-0--0--0-0-0---|---------------|-0-0--0--0-0-0---|---------------|
B|-2-2--0--0-0-0-4-|-4-4-4---5--5--|-2-2--0--0-0-0-4-|-4-4-4---5--5--|
G|-2-2--1--1-1-1-4-|-4-4-4/6-6--6--|-2-2--1--1-1-1-4-|-4-4-4/6-6--6--|
D|-2-2--2--2-2-2-4-|-4-4-4---6--6--|-2-2--2--2-2-2-4-|-4-4-4---6--6--|
A|-0-0--2--2-2-2-2-|-2-2-2---4--4--|-0-0--2--2-2-2-2-|-2-2-2---4--4--|
E|------0--0-0-0---|---------------|------0--0-0-0---|---------------|

  Stacys mom (a-o-a-h)         I'm In love with Stacys mom (a-o-a-oh)

e|-0-0--0--0-0-0-0-|---------------|-----------------|-----------------|
B|-2-2--0--0-0-0-0-|---------5--5--|-----------------|-----------7-----|
G|-2-2--1--1-1-1-1-|-5-5-5---6--6--|-----------------|-5-5-5-5-5-7-----|
D|-2-2--2--2-2-2-2-|-4-4-4/6-6--6--|-7-7-7-7-7-7-7-7-|-5-5-5-5-5-5-----|
A|-0-0--2--2-2-2-2-|-3-3-3---4--4--|-7-7-7-7-7-7-7-7-|-3-3-3-3-3-------|
E|------0--0-0-0-0-|---------------|-5-5-5-5-5-5-5-5-|-----------------|
  
  Stacy can't you see you're just   I know it might be wrong 
        not the girl for me,    but I'm in love with stacys mom

2.) Hey Julie

By Talonator

G C G D G C G D

G           C         G           D
Working all day for a mean little man

       G       C         G      D
With a clip-on tie and a rub-on tan

            Em                 C             D            G
He's got me running 'round the office like a dog around a track

    Em              C                   D               G
But when I get back home, you're always there to rub my back

[Chorus]

G   C
Hey Julie,

D                 C
Look what they're doing to me

Em                C
Trying to trip me up

          D       G
Trying to wear me down

G        C           D          C
Julie, I swear, it's so hard to bear it

        Em            C           D       G
And I'd never make it through without you around

        Em            C           D       G
No I'd never make it through without you around

G            C            G         D
Hours on the phone making pointless calls

        G            C                 G          D
I got a desk full of papers that means nothing at all

    Em              C    D            G
Sometimes I catch myself staring into space

Em                C            E          G
Counting down the hours 'til I get to see your face

G   C
Hey Julie,

D                 C
Look what they're doing to me

Em                C
Trying to trip me up

          D       G
Trying to wear me down

G        C              D       C
Julie, I swear, it's so hard to bear it

        Em            C            D        G
And I'd never make it through with out you around

        Em            C            D        G
No, I'd never make it through with out you around

[Bridge]
Em                 Bm
How did it come to be

                    C
That you and I must be

                   D
Far away from each other every day?

Em                  Bm
Why must I spend my time

              C
Filling up my mind

                            D
With facts and figures that never add up anyway?

     C
They never add up anyway

G           C         G           D
Working all day for a mean little guy

       G      C         G            D
With a bad toupee and a soup-stained tie

            Em                 C
He's got me running 'round the office

       D           G
Like a gerbil on a wheel

       Em              C
He can tell me what to do

             D               G
But he can't tell me what to feel

G   C
Hey Julie,

D                 C
Look what they're doing to me

Em                C
Trying to trip me up

          D       G
Trying to wear me down

G        C           D          C
Julie, I swear, it's so hard to bear it

        Em            C           D       G
And I'd never make it through without you around

        Em            C           D       G
No I'd never make it through without you around

        Em            C           D       G
No I'd never make it through without you around

3.) Mexican Wine

By Natty (Unregistered)

       F#                   C#
He was killed by a cellular phone explosion
     D#m                  B
They scattered his ashes across the ocean
The water was used to make baby lotion
The wheels of promotion were set into motion

        F#        C#            B
But the sun still shines in the summer time
I'll be yours if you'll be mine
I tried to change, but I changed my mind
           D#m          C#       B       F#
Think I'll have another glass of Mexican wine
                                 
E---6-6-6--4-2--4-6-4-6--         
B---7-7-7--6-4--6-7-6-7--       

  F#    
E----6h7-- (x3)
  
F#                   C#     C#/D
She lived alone in a small apartment
D#m        D#m/C#          B        Bm
Across the street from the health department
She left her pills in the glove compartment
That was the afternoon her heart went

And the sun still shines in the summer time
I'll be yours if you'll be mine
I tried to change, but I changed my mind
Think I'll have another glass of Mexican wine
Think I'll have another glass of Mexican wine

   G#             D#           B             C# 
E---------4--------------------------2------------------
B-------------------------------------------------------   (x2)
G--5h6-8----5-5-3-5-5h6-5-3----3h4-6---3-3-1-3-3h4-3-1--

G#                D#     D#/E
I used to fly for United Airlines
Fm         Fm/D#     C#      C#m
Then I got fired for reading High Times
My license expired in almost no time
Now I'm retired and I think that's fine

            G#        D#            C#
Because the sun still shines in the summertime
I'll be yours if you'll be mine
I tried to change, but I changed my mind
           Fm           D#       C#      C#m       
Think I'll have another glass of Mexican wine

Because the sun still shines in the summertime
I'll be yours if you'll be mine
I tried to change, but I changed my mind
           Fm           D#       C#      G#
Think I'll have another glass of Mexican wine
Think I'll have another glass of Mexican wine
Won't you have another glass of Mexican wine

C# G# C# G#  G#

4.) All Kinds Of Time

By Natty (Unregistered)

E  B  C#m  A

E                   B                       C#m            A
The clock's running down, the team's losing ground, to the opposing defense
The young quarterback waits for the snap when suddenly it all starts to make sense

E                     B                           D                  A
He's got all kinds of time, he's got all kinds of time, all kinds of time
He's got all kinds of time, all kinds of time

He takes a step back, he's under attack, but he knows that no one can touch him now
He seems so at ease, a strange inner peace is all that he's feeling somehow

He's got all kinds of time, he's got all kinds of time, all kinds of time
He's got all kinds of time, all kinds of time

   Am                                              E    B
He thinks of his mother, he thinks of his bride-to-be
   Am
He thinks of his father, his two younger brothers
B
Gathered around the widescreen TV

   E       B       D       A       (x2)
D--6b~~~~~-6b~~~~~-7b~~~~~-7b~~~~-          
(Yes!  Easiest solo ever)

He looks to the left, he looks to the right, and there in a golden ray of light
Is his open man just as he planned, the whole world is his tonight

E     B     D     A (repeat and fade)
All kinds of time...

5.) Hackensack

By Cavcrazy13

=======Intro===========

E----------------------------------------------------------------|
B----------------------------------------------------------------|
G--------5-------------------------------------------------------|
D--5-3-5-----5-----3-5---5--------------6---5--------------------|
A----------------6----------------6-5-6---------6----------------|
E----------------------------------------------------------------|


Am                      C
I used to know you...

F                      C  E
You were...

Am                      C
We sat together in...

F                      C  E
Fridays at eight...

Am                      C
Now I see your face...

F                      C  E
Movies and...

Am                      C
I saw you talking...

F                      C
On my TV....


===Chorus=====================

    F                      C
But I will wait...

   F                      G  E
As long as I...

           Am                      C
And if you...

F                      C
I'll be...

====PLAY INTRO=======


Am                      C
I used to work in...

F                      C  E
Now I work for...

Am                      C
Scraping the paint...

F                      C  E
The hours are...


Am                      C
Sometimes I wonder...

F                      C  E
Probably...

Am                      C
That seems to be...

F                      C
Else ends...


========REPEAT THE CHORUS===========


==== Solo =======
E----------------------------------------------------------------|
B--------4---------------4---------------3---------------4-------|
G----------------------------------------------------------------| 2X
D--5---------------5---------------3---------------5-------------|
A----6---------------6---------------5---------------6-----------|
E----------------------------------------------------------------|

E----------------------------------------------------------------|
B--------4---------------4---------------3---------------3-------|
G----------------------------------------------------------------|
D--5---------------5---------------3---------------3-------------|
A----6---------------6---------------5---------------5-----------|
E----------------------------------------------------------------|

======Play chorus again===========

========End with playing the intro=========

6. Bright Future In Sales

By DJSeebs

Main Riff
|------------------------------------------
|------------------------------------------
|------------------------------------------
|-------------5-6-7------------------------
|0--3-4-5---3-------0---3-5-5s6-5-3--------
|-------------------------------------------

Verse
|----------------------------------------------------------------
|---------------------------------7-7-7-7-7-7-7-7-------7--7--7--
|-7-7-7-7-7-7-7-7-2-2-2-2-2-2-2-2-7-7-7-7-7-7-7-7-------7--7--7--
|-7-7-7-7-7-7-7-7-2-2-2-2-2-2-2-2-5-5-5-5-5-5-5-5---3-4-5--5--5--
|-5-5-5-5-5-5-5-5-0-0-0-0-0-0-0-0-----------------5--------------

|----------------------------------------------------------------
|---------------------------------7-7-7-7-7-7-7-7----------------
|-7-7-7-7-7-7-7-7-2-2-2-2-2-2-2-2-7-7-7-7-7-7-7-7-7-7-7-7-7-7-7--
|-7-7-7-7-7-7-7-7-2-2-2-2-2-2-2-2-5-5-5-5-5-5-5-5-7-7-7-7-7-7-7--
|-5-5-5-5-5-5-5-5-0-0-0-0-0-0-0-0-----------------5-5-5-5-5-5-5--

|-----------------------------------------------------------------
|-----------------------------------------------------------------
|-7-7-7-7-7-7-7-7-----------------7-7-7-7-7-7-7-7---------(long)--
|-7-7-7-7-7-7-7-7-7-7-7-7-7-7-7-7-7-7-7-7-7-7-7-7-4--4---4-///--9-
|-5-5-5-5-5-5-5-5-7-7-7-7-7-7-7-7-5-5-5-5-5-5-5-5-4--4---4-///--9-
|-----------------5-5-5-5-5-5-5-5-----------------2--2---2-///--7-

|-----
|-----
|--7--
|--7--
|--5--
|-----

Chorus
|----------------------------------------------------------------
|----------------------------------------------------------------
|------9--9------------------------------------------------------
|-7-7--9--9---9--9----9--9-9-9-----------------------------------
|-7-7--7--7---9--9----9--9-9-9-----------------------------------
|-5-5---------7--7----7--7-7-7-----------------------------------

(note: this E here is tricky... i THINK the bass is playing the low E
while the guitarists are doing this one, so it's tough to get. IF you
want, try playing
|---
|---
|---
|-2-
|-2-
|-0-
instead, and see what you like)


|----------------------------------------------------------------
|----------------------------------------------------------------
|-----------------4-4-4-4-4-4-4-4-----------------7--------------
|-4-4-4-4-4-4-4-4-4-4-4-4-4-4-4-4-5-5-5-5-5-5-5-5-7--------------
|-4-4-4-4-4-4-4-4-2-2-2-2-2-2-2-2-5-5-5-5-5-5-5-5-5--------------
|-2-2-2-2-2-2-2-2-----------------3-3-3-3-3-3-3-3----------------

Bridge
|----------------------------------------------------------------
|----------------------------------------------------------------
|-9--------------------9-----------------------------------------
|-9----------9---------9---------9---10-12-----------------------
|-7----------9---------7---------9---10-12-----------------------
|------------7-------------------7---8--10-----------------------


Solo
Oh, man... i suck at tabbing solos. Well, here's my best shot.
This IS NOT 100% accurate.
Put LOTS of auto-wah on this beast

|--------------------|----------|---------------------------------------------------
|-9s10--10^-8p5h8-5--|----------|---------------------------------------------------
|--------------------|-5h7-5-0--|-/5--0--5-7/9/7-5--12/14-(jam 14 for a while)------
|-------------------------------|---------------------------------------------------
|--------------------|----------|---------------------------------------------------
|--------------------|----------|---------------------------------------------------

|-----------------/12|--------17|---------------------------------------------------
|-9s10--14p10h14-----|-14p12----|-13p10-13p10-13p10----10---------------------------
|--------------------|----------|-------------------12------------------------------
|--------------------|----------|---------------------------------------------------
|--------------------|----------|---------------------------------------------------
|--------------------|----------|---------------------------------------------------
 Someone PLEASE fix this

End on
|-----
|------
|--7---
|--7---
|--5---


Lyrics (as best as I can tell)

Sleepin' on a planner at the port authority,
waitin' for my bus to come,
Seven scotch and sodas at the office party
Now I don't remember where I'm from

I think I had a black wallet
In my back pocket
With a bus ticket
And a picture of my baby inside
And if I make it home alive

I'm gonna get my *** together
Cause I can't live like this forever,
You know I've come too far and I don't wanna flip
I gotta new computer and a bright future in sales
yeah yeah
(Yeah yeah), bright future in sales
yeah yeah
(Yeah yeah)
Yeah yeah

Headin' for the airport on a misty morning
Gonna catch a flight to Baltimore
Try to kill an hour with a whiskey-sour
If there's time i might have just one more

I gotta do some, quick readin'
for the big meetin'
but my head is spinning
and i can't quite open my eyes
as long as I don't have to drive

I'm gonna get my *** together
Cause I can't live like this forever,
You know I've come to far and I don't wanna flip
I gotta new computer and a bright future in sales
yeah yeah
(Yeah yeah), bright future in sales
yeah yeah
(Yeah yeah), bright future in sales
yeah yeah
(Yeah yeah), bright future in sales
yeah yeah
(Yeah yeah)
yeah yeah

I had a line on a brand new account
But now i can't seem to find where i wrote that number down,
I try to focus,
I'm starin' at the screen,
Pretendin' like a know what all these little flashing lights mean

(oh yeah)

7.) Valley Winter Song

By Mikelino

- Capo on 3rd fret, all chords are named relative to the position of
  the capo.


Intro:  G     -     Bm     - C  Cadd9hC - C  Cadd9hC      (x4)
(Cadd9 : x30010. Hammer-on middle finger to change from Cadd9 to C)

Em          C             G
  Hey sweet Annie, don't take it so bad
D                              A7
 you know the summer's coming soon
           C               D            Bm             C
though the interstate is choking under salt and dirty sand
        Am                               C
and it seems the sun is hiding from the moon

G            C             D          G
 Your daddy told you when you were a girl
     B                                     C
the kind of things that come to those who wait
    C         G          C            G
so give it a rest girl, take a deep breath girl
     Am                        C
and meet me at the Bay State tonight

----------
Chorus:

      D                    C                G
The snow is coming down on our New England town
    D                          Em  Am
and it's been falling all day long
  C           D     C           Em
what else is new?, what could I do?
    C                             D       G
I wrote a valley winter song to play for you
----------

G Bm C C  (x2)

Em           C            G
  And late December, can drag a man down
D                          A7
 you feel it deep in your gut
C               D                 Bm              C
 short days and afternoons spent pottering around
      Am                                   C
in a dark house with the windows painted shut

G          C         D         G
 Remember New York staring outside
B                              C
 as wreckless winter made its way
  C         G             C           G
from Staten Island to the Upper West Side
Am                                 C
whiting out our streets along the way

----------
Chorus 2:

      D                    C                G
The snow is coming down on our New England town
    D                          Em  Am
and it's been falling all day long
  C           D      C        Em
what else is new?, what can I do?
     C                               D        G
but sing this valley winter song I wrote for you
----------

Solo background chords: G C G G D D A7 A7 C D Bm C Am Am C C

Chorus 2

G Bm C C G(single strum)

8.) Little Red Light

By Natty

G    C (x2)

G                         C      G
Sitting in traffic on the Tappan Zee / fifty million people out in front of me
C                                                G       C  G
Trying to cross the water but it just might be a while
Rain's coming down I can't see a thing / radio's broken so I'm whistling
C                 G                    D
New York to Nyack feels like a hundred miles

         Em              G
It's not right, it's not fair / I'm still a mess and you still don't care
I go to work, I come back home
                 Em                  D
But you're still gone, and I'm still alone
        C
And the little red light's not blinking / no, no the little red light's not blinking
           G
No, no the little red light's not blinking
      C   C     C   C   C        C        G      C  G   C  G    C G    C G
On my big black plastic Japanese cordless phone, oh no, oh no

Stuck in a meeting on Monday night / trying to get the numbers to come out right
I'm getting tired, I think I just might need a drink
And as I'm reaching in the bottom drawer / I'm dreaming 'bout the way it was before
Life was so easy I never really had to think

It's not right, it's not fair / I'm still a mess and you still don't care
I go to sleep, when I wake up
The pain sets in and it never stops
And the little red light's not blinking / no, no the little red light's not blinking
No, no the little red light's not blinking
On the desktop mailbox of my big black laptop, oh no

(Solo over verse chords)

It's not right, it's not fair / I'm still a mess and you still don't care
I go to work, I come back home
But you're still gone and I'm still alone
And the little red light's not blinking / no, no the little red light's not blinking
No, no the little red light's not blinking
On my big black Radio Shack digital portable phone, oh no

9.) Peace And Love

By Unknown

CHORUS:
A              E
Peace and love
A              E
Peace and love
          A                     E
That's all I'm thinking of baby
D              E
Peace and love
 
(Repeat)
 
A              E           A                E
Riding around in a Volkswagen van
A                             E                    A            E
Thinking 'bout the people upside-down in Japan
A                      E           A               E
Staring at the stars in a distant galaxy
A                             E                             D                   E
Wondering if there's someone out there staring back at me singing

CHORUS

A                   E             A                E
Lying on the floor just playing my guitar
A                           E               A                       E
Trying to find the chords for "Just The Way You Are"
A                  E              A    E
Plane crash flashing on my TV
A                                  E                   D                      E
Well it could have been you, baby, It could have been me
 
B      
We'll never live forever
A                                     A     E     A    E
But baby things could be worse
             B                                        A                       A     E     A    E     
Cause when we get together we are one with the Universe

A   E    (x8)  w/ woo-hoo
Добавлено: 12.02.2014
Другие материалы по этой песне:
  • Аккорды и текст

Страница создана 12.02.2014
http://primanota.ru/fountains-of-wayne/welcome-interstate-managers-chords.htm
Привет, Гость.
Предлагаем пройти революционный курс по гитаре.
Подарок от PrimaNota.Ru, забирай!