PrimaNota.ru - самый крупный в мире бесплатный архив песенных текстов, аккордов, табулатур и нот


Forseti - Wind - текст песни, таба, видео

Регистрация Запомнить меня
Войти через:  Facebook Google Twitter Vk Yandex Mail.ru

Forseti - Wind - текст песни, таба, видео

Печатать
Просмотров: 237
Forseti - Wind , from the album Windzeit, http://freesys.homeip.net/~stefan/forseti/

very easy song, enjoy


RIFF 1

e|---------------------------------------------------------------------------|
 |--3---3---1---1------------------------------------------------------------|
 |------------------3---3---2---2---2---2---0---0---2---2---2---2------------|
 |----0---0---0---0---0---0---0---0---3---3---2---2---0---0---0---0----------|
 |---------------------------------------------------------------------------|
E|---------------------------------------------------------------------------|

RIFF 2
                                    the second time play this one twice
e|----------------------------------|---------------------------------|--------|
 |--3---3---5---5---6---6---5---5---|---------------------------------|--------|
 |----------------------------------|2---2---0---0---2---2---2---2----|--------|
 |----0---0---0---0---0---0---0---0-|--3---3---2---2---0---0---0---0--|--------|
 |----------------------------------|---------------------------------|--------|
E|----------------------------------|---------------------------------|--------|

VIOLIN (I play it vibrato)


VRIFF 1

e|-----------5--5--3---3-5~~-----5--6-8-10-5--5--3--------------|
 |--3--5--6----------6--------3---------------------6-5-3~------|
 |--------------------------------------------------------------|
 |--------------------------------------------------------------|
 |--------------------------------------------------------------|
E|--------------------------------------------------------------|

VRIFF 2

e|--------5--6-8-10-5--5--3--3-5--5~~-----5--6-8-10-5--5----------------(5)------|
 |--3-----------------------6----------3------------------3-6-5-3~~---(3)--------|(5)
|--------------------------------------------------------------------------------|
|--------------------------------------------------------------------------------|
|--------------------------------------------------------------------------------|
E|-------------------------------------------------------------------------------|

VRIFF3

e|--------5--6-8-10-5--5--3--3-5--5~~--------5--6-8-10-5--5--3--3-5--5~~------|
 |--3-----------------------6-------------3-----------------6-----------------|
 |----------------------------------------------------------------------------|
 |----------------------------------------------------------------------------|
 |----------------------------------------------------------------------------|
E|----------------------------------------------------------------------------|

basicaly the entire song is made by this two RIFFs. It's not perfect but I hope it will help you

RIFF1 X 2
RIFF2 X 2
RIFF1 X 2 lyrics start
RIFF2 X 2
RIFF1 X 2 + VRIFF1
RIFF2 X 2 + VRIFF2
RIFF1 X 2
RIFF2 X 2
RIFF1 X 2 + VRIFF1
RIFF2 X 2 + VRIFF2
RIFF1 X 2 + VRIFF3
RIFF2 X 2 + VRIFF2
RIFF1 X 2 + VRIFF3
RIFF2 X 2 + VRIFF2

Comments? ludo-van@libero.it
Добавлено: 23.02.2012
Вам также может быть интересно:
Другие материалы по этой песне:
  • Аккорды и текст

Страница создана 23.02.2012
http://primanota.ru/forseti/wind-chords.htm
Привет, Гость.
Предлагаем пройти революционный курс по гитаре.
Подарок от PrimaNota.Ru, забирай!