PrimaNota.ru - самый крупный в мире бесплатный архив песенных текстов, аккордов, табулатур и нот


Foals - Red Sox Pugie - текст песни, таба, видео

Регистрация Запомнить меня
Войти через:  Facebook Google Twitter Vk Yandex Mail.ru

Foals - Red Sox Pugie - текст песни, таба, видео

Печатать
Просмотров: 185
this is most of the song I think, first bit uses delay/reverb and some sort of flanger, I think.
theres some bits missing still.
enjoyx


e      ---17---------------------------------17---------------------|
B      --------------17---------------------------------------------|
G      -------------------------17----------------------------------|
D      -------------------------------------------------------------|
A      -------------------------------------------------------------|
E      -------------------------------------------------------------|


e      ---17--------------------------------------------------------|
B      --------------17---------------------------------------------|
G      -------------------------17----------14----------------------|
D      -------------------------------------------------------------|
A      -------------------------------------------------------------|
E      -------------------------------------------------------------|


e      -------------------------------------------------------------------|
B      -------------------------------------------------------------------|
G      -------------------------------------------------------------------|
D      --14-14-14--17-17-17-14-14-14-17-17-17-----------------------------|
A      ----------------------------------------------19-17-15-------------|
E      -------------------------------------------------------------------|      x2

e      -------------------------------------------------------------|
B      -------------------------------------------------------------|
G      -------------------------------------------------------------|
D      --14-14-14--17-17-17-14-14-14-17-17-17-19-17-14-14-----------|
A      -------------------------------------------------------------|
E      -------------------------------------------------------------|


e      ------------------------------------------------------------------|
B      ------------------------------------------------------------------|
G      ------------------------------------------------------------------|
D      --12-12-12-14-14-14-12-12-12-14-14-14-----------------------------|
A      ---------------------------------------------17-15-14-------------|
E      ------------------------------------------------------------------|     x2

e      -------------------------------------------------------------|
B      -------------------------------------------------------------|
G      -------------------------------------------------------------|
D      --12-12-12-14-14-14-12-12-12-14-14-14------------------------|
A      ---------------------------------------------17-15-14-12-----|
E      -------------------------------------------------------------|


e      ---------------------------------|
B      ---------------------------------|
G      ---------------------------------|
D      -------14-------14-------14------|
A      --14-------14-------14-------14--|
E      ---------------------------------|   as many times as needed.


e      --------------------------------15--|
B      ------------------------------------|
G      ------------------------------------|
D      ---12--14/10-------12-14------------|
A      ------------------------------------|
E      ------------------------------------|    the last note continues to change, I think.
Добавлено: 29.04.2012
Другие материалы по этой песне:
  • Аккорды и текст

Страница создана 29.04.2012
http://primanota.ru/foals/red-sox-pugie-chords.htm
Привет, Гость.
Предлагаем пройти революционный курс по гитаре.
Подарок от PrimaNota.Ru, забирай!