PrimaNota.ru - самый крупный в мире бесплатный архив песенных текстов, аккордов, табулатур и нот


Foals - What Went Down - таба, видео

Регистрация Запомнить меня
Войти через:  Facebook Google Twitter Vk Yandex Mail.ru

Foals - What Went Down - таба, видео

Печатать
Просмотров: 255
Tabbed by: FLETCHER LEGG (aged 18)
Tabbed using: Foals - What Went Down [Official Music Video]

 |INTRO| Guitar 1 - 0:12 (Played throughout)
e|----------------------------|
B|----------------------------|
G|-12-12-12-12-12-12-12-12-12-|
D|----------------------------|
A|----------------------------|
E|----------------------------|

 |VERSE 1| Guitar 2 - 0:18 to 1:09
e|---------------------------------------------------------------------------|
B|--------------------------*Play this at the end of each verse sentence*----|
G|---------------------------------------------------------------------------|
D|------------------------------------------8---10---5-----------------------|
A|------------------------------------------8---10---5-----------------------|
E|------------------------------------------6----8---3-----------------------|
                                            A#   C   G

**|VERSE lyrics|**

I buried my heart in a hole in the ground   (example: A# C G)
With the lights and the roses and the cowards down-town
They threw me a party there was no one around
They tried to call my girl but she could not be found

I buried my guilt in a pit in the sound
With the rust and the vultures and the trash down-town
So don't step to me, kid you'll never be found
'Cos while you were sleeping I took over your town (G is maintained until PRE-CHORUS - 1:16)

 |PRE-CHORUS| Guitar 1 - 1:09 to 1:28 repeated again at 2:07 to 2:27
e|---------------------------------------------------------------------------|
B|---------------------------------------------------------------------------|
G|------------12----------12----------12-12-12-12-12-12-12-12-12-12-12-12-12-|  (12s repeated til 1:28)
D|---------------------------------------------------------------------------|
A|-(10)-10-10----10-10-10----10-10-10----------------------------------------|
E|---------------------------------------------------------------------------|

 |PRE-CHORUS| Guitar 2 - 1:16 to 1:28 repeated again at 2:14 to 2:27
e|---------------------------------------------------------------------------|
B|---------------------------------------------------------------------------|
G|---------------------------------------------------------------------------|
D|---------------------------------------------------------------------------|
A|---------------------------------------------------------------------------|
E|-6-6-6-6-3-3-5-5-5-5-3-3-3-3-3-3-3-3---6-6-6-6-3-3-8-8-8-8-3-3-3-3-3-3-3-3-| x2

 |CHORUS| Guitar 1 - 1:28 to 1:42
e|---------------------------------------------------------------------------|
B|---------------------------------------------------------------------------|
G|--12(b)12(r)12(b)12(r)12(b)12(r)12(b)12(r)12(b)12(r)12(b)12(r)12(b)12(r)---|
D|---------------------------------------------------------------------------|
A|---------------------------------------------------------------------------|
E|---------------------------------------------------------------------------|

 |CHORUS| Guitar 2 - 1:28 to 1:42
e|---------------------------------------------------------------------------------------------------------|
B|-------------------------- PLAY THIS 2x on 1st chorus | 4x on 2nd chorus --------------------------------|
G|---------------------------------------------------------------------------------------------------------|
D|-8--8--8--8--5--5--7--7--7--7--5--5--5--5--5--5--5--5-|-8--8--8--8--5--5--10-10-10-10-5--5--7--7--5--5--|
A|-8--8--8--8--5--5--7--7--7--7--5--5--5--5--5--5--5--5-|-8--8--8--8--5--5--10-10-10-10-5--5--7--7--5--5--|
E|-6--6--6--6--3--3--5--5--5--5--3--3--3--3--3--3--3--3-|-6--6--6--6--3--3--8--8--8--8--3--3--5--5--3--3--|

**|CHORUS lyrics|**

When I see a man I see a lion
When I see a man I see a lion
You're the apple of my eye of my eye of my eye
You're the apple of my eye of my I want 'ya
(I give up my money give up my name take it away)
(I give it away I give it away I give it) ------------> bracketed section is sung on second chorus
(When I see a man I see a lion)
(When I see a man I see a lion)

 |VERSE 2| Guitar 2 - 1:42 to 2:07                                           | Guitar 1 lick - 2:00 to 2:02
e|---------------------------------------------------------------------------| e|--------------------|
B|--------------------------*Play this at the end of each verse sentence*----| B|--------------------|
G|---------------------------------------------------------------------------| G|--12s14--12s14--12--|
D|------------------------------------------8---10---5-----------------------| D|--------------------|
A|------------------------------------------8---10---5-----------------------| A|--------------------|
E|-(3-3-3-3-3-3-3-3-3-3-3-3-3-3-3-3-3-3-3)--6----8---3-----------------------| E|--------------------|
      3s played during Yannis' singing      A#   C   G                       |

**|VERSE 2 lyrics|**

I fell for a girl with a port-wine stain
I knew her initials but never her name
I tried and I tried and I was never the same
So no long for love and I'm forever changed

REPEAT PRE-CHORUS from 2:07 to 2:27

REPEAT CHORUS from 2:27 to 2:53

|BRIDGE| Guitar 1 - 2:53 to 3:40   |BRIDGE| Guitar 2 - 2:53 to 3:40           (repeat this scale for a bit)
e|------------------------|        e|----------|----------------------------------------------------------|
B|------------------------|        B|----------|----------------------------------------------------------|
G|--5--7--9--5--7--9--10--|        G|--12(x24)-|-14-12-10-12-14-12-10-12-12s17-14p12s10-10-12-14-12-10-12-|
D|------------------------|        D|----------|----------------------------------------------------------|
A|------------------------|        A|----------|----------------------------------------------------------|
E|------------------------|        E|----------|----------------------------------------------------------|

|FINAL CHORUS| Guitar 1 - 3:40 to 5:09
e|------------------------|
B|------------------------|
G|--12-12-12-12-12-12-12--|
D|------------------------|
A|------ palm muted ------| stop palm muting at 4:16
E|------------------------|

|FINAL CHORUS| Guitar 2 - 3:50 to 5:09
e|------------|-------------------------------------------------|---------------------------------------------|
B|------------|-------------------------------------------------|---------------------------------------------|
G|------------|-------------------------------------------------|---------------------------------------------|
D|------------|-------------------------------------------------|-8s5s7s5--8s5s10s5s7s5--8s5s7s5--8s6s10s5s12-|
A|------------|-------------------------------------------------|-8s5s7s5--8s5s10s5s7s5--8s5s7s5--8s6s10s5s12-|
E|---3(x64)---|--6s3s5s3--6s3s8s3s5s3--6s3s5s3--6s3s8s3s10(x2)--|-6s3s5s3--6s3s-8s3s5s3--6s3s5s3--6s3s-8s3s10-|
 |3:50 to 4:03|                    4:03 to 4:29                 |                 4:29 to end                 |

**|FINAL CHORUS lyrics|**

When I see a man I see a lion
When I see a man I see a lion
You're the apple of my eye of my eye of my eye
You're the apple of my eye of my I want 'ya
I give up my money give up my name take it away
I give it away I give it away I give it
I'm a sycophantic animal, I'm a sycophant oh no, I'm a sycophantic oh I know,
Break through the chain, I'm breaking the chain I'm breaking
Give it away, give it away, I give it
When I see a man I see a lion
When I see a man I see a lion
You're the apple of my eye of my eye of my eye
You're the apple of my eye of my I want 'ya
Give up my money, give up my name, take it away
I give it away I give it away I give it
See you again I see you again I see ya
Give it away, I give it away, I give it
[unintelligible]
When I see a man I see a lion
When I see a man I see a lion
You're the apple of my eye of my eye of my eye
You're the apple of my eye of my I want 'ya
Добавлено: 06.12.2015
Другие материалы по этой песне:
  • Аккорды и текст

Страница создана 06.12.2015
http://primanota.ru/foals/what-went-down-chords.htm
Привет, Гость.
Предлагаем пройти революционный курс по гитаре.
Подарок от PrimaNota.Ru, забирай!