PrimaNota.ru - самый крупный в мире бесплатный архив песенных текстов, аккордов, табулатур и нот


Foals - Xxxxxx - таба, видео

Регистрация Запомнить меня
Войти через:  Facebook Google Twitter Vk Yandex Mail.ru

Foals - Xxxxxx - таба, видео

Печатать
Просмотров: 244
This is only a rough idea of some of the guitar parts played.

E|---------------------------------------------------|
B|---------17----------------------------------------|
G|----14-17------14-17-16----16-17-14----14-17-------|
D|---------------------------------------------17----|
A|---------------------------------------------------|
E|---------------------------------------------------|

^ That's repeated until the end

At 1:35 the other guitarist comes in with this:

E|------17--17--15-----------------------------------|
B|----15--15--------17-15----15-17-------15-17-------|
G|---------------------------------17----------17----|
D|---------------------------------------------------|
A|---------------------------------------------------|
E|---------------------------------------------------|

^ That's repeated until the end too
Добавлено: 05.06.2012
Другие материалы по этой песне:

Страница создана 24.03.2012
http://primanota.ru/foals/xxxxxx-chords.htm
Привет, Гость.
Предлагаем пройти революционный курс по гитаре.
Подарок от PrimaNota.Ru, забирай!