PrimaNota.ru - самый крупный в мире бесплатный архив песенных текстов, аккордов, табулатур и нот


Fleetwood Mac - Fighting For Madge - таба, видео

Регистрация Запомнить меня
Войти через:  Facebook Google Twitter Vk Yandex Mail.ru

Fleetwood Mac - Fighting For Madge - таба, видео

Печатать
Просмотров: 134
Авторы музыки: Mick Fleetwood
Авторы текста: Mick Fleetwood
-----------------------------------------------------------------
               Fighting For Madge - Fleetwood Mac
-----------------------------------------------------------------

Tabbed By: Aeonoptic
e-mail: aeonoptic@gmail.com

Tuning: EADGBe

  Guitar 1
E|-----------7-|-----------|-------------|-----------|-----------7-|-------------|
B|10p7-10b12---|-----------|10p7-10b11-7-|-----------|10p7-10b12---|-------------|
G|-------------|-----------|-------------|-----------|-------------|-------------|
D|-------------|-----------|-------------|-----------|-------------|-------------|
A|-------------|-----------|-------------|-----------|-------------|-------------|
E|-------------|-----------|-------------|-----------|-------------|-------------|

 Guitar 2
E|-------------|-----------|-------------|-----------|-------------|-------------|
B|-------------|-----------|-------------|-----------|-------------|-------------|
G|-------------|-----------|-------------|-----------|-------------|-------------|
D|-------------|---7-------|-------------|---7-------|-------------|---7---------|
A|-------------|/9---7p5---|-------------|/9---7p5---|-------------|/9---7p5-----|
E|-------------|---------7-|-------------|---------7-|-------------|---------7---|

  Guitar 1
E|----------------|-----------|---7-10--7-7----|-----------|--7-10-7-------------|
B|10-7------------|-----------|10-----------10-|-----------|7--------7-10--------|
G|-----9--9-7-----|-----------|----------------|-----------|--------------9p7----|
D|------------9-9-|-----------|----------------|-----------|------------------9-9|
A|----------------|-----------|----------------|-----------|---------------------|
E|----------------|-----------|----------------|-----------|---------------------|

  Guitar 2
E|----------------|---5-------|----------------|---5-------|--------------------|
B|----------------|/7---5p3---|----------------|/7---5p3---|--------------------|
G|----------------|---------4-|----------------|---------4-|--------------------|
D|----------------|-----------|----------------|-----------|--------------------|
A|----------------|-----------|----------------|-----------|--------------------|
E|----------------|-----------|----------------|-----------|--------------------|

  Guitar 1
E|-----------|7b---------------|-----------|--------------|-----------|
B|-----------|7b---------------|-----------|--------------|-----------|
G|-----------|---9-7---7-------|-----------|--------------|-----------|
D|-----------|-------9---9-7-9-|-----------|4-------------|-----------|
A|-----------|-----------------|-----------|--5-7-5-------|-----------|
E|-----------|-----------------|-----------|--------7-5-7-|-----------|

  Guitar 2
E|---5-------|-----------------|-----------|--------------|-----------|
B|/7---5p3---|-----------------|-----------|--------------|-----------|
G|---------4-|-----------------|-----------|--------------|-----------|
D|-----------|-----------------|---7-------|9~------------|---7-------|
A|-----------|-----------------|/9---7p5---|--------------|/9---7-----|
E|-----------|-----------------|---------7-|--------------|--------7--|
 
  Guitar 1
E|------------------------|-------------------7--------------|
B|---------------3--------|-----------------7---10~~--10b12~~|
G|----2------2/4---4p2-4~~|----7---7-9-9b11------------------|
D|2h4----2h4--------------|7h9---9---------------------------|
A|------------------------|----------------------------------|
E|------------------------|----------------------------------|

  Guitar 2
E|------------------------|----------------------------------|
B|------------------------|----------------------------------|
G|------------------------|----------------------------------|
D|-------------------7----|----------------------7-----------|
A|----------------/9---7--|------------------------7-----14~~|
E|-----------------------7|-------------------/9-----7-------|
 
E|------------------|-----------------------|
B|/10~--/12-12-10-10|/9-9-9--7-7--9-9-9--7-7|
G|/11~--/13-13-11-11|/9-9-9--7-7--9-9-9--7-7|
D|------------------|/9-9-9--7-7--9-9-9--7-7| x4
A|------------------|-----------------------|
E|------------------|-----------------------|

From this point until it is reintroduced,
Guitar 2 plays Bm7 [xx7777]

  Guitar 1
E|----------|----------------------|-------------------------|--------------------------|
B|----------|----------------------|-------------------------|--------------------------|
G|9b11-9-7--|9b11-9-7----9b11-9-7--|9b11-9-7----9b11-9-7-9b11|9b11-9-7---9b11-9-9b11~~~~|
D|---------9|---------9-----------9|---------9---------------|---------9----------------|
A|----------|----------------------|-------------------------|--------------------------|
E|----------|----------------------|-------------------------|--------------------------|
 
E|7-----------7-----|---------------------7-7-~|7-7--7-7--7-7---7-7--7-7--7--7-7--7-7--7|
B|--10b12~~~----10-7|-------------------7---10~|7-10-7-10-7-10--7-10-7-10-10-7-10-7-10-7|
G|------------------|9br11p7---9-7-9b11--------|----------------------------------------|
D|------------------|--------9-----------------|----------------------------------------|
A|------------------|--------------------------|----------------------------------------|
E|------------------|--------------------------|----------------------------------------|
 
E|--------------------------------|-------------------------------|
B|--------------------------------|-------------------------------|
G|10\9-7---9-7--------------------|------------7---9---7-7h9p7----|
D|-------9-----9-7-9-7------------|----7---7-9---9---9---------9-9|
A|---------------------9-7-5---5--|7/9---9------------------------|
E|---------------------------7---7|-------------------------------|
 
E|--------------------10----12b14|10-12----10------------|-----------7---------|
B|-----10-10-10-10-12----12------|------12----12----10---|---------7---10b12~~~|
G|9/11---------------------------|---------------11----11|9\7-9b11-------------|
D|-------------------------------|-----------------------|---------------------|
A|-------------------------------|-----------------------|---------------------|
E|-------------------------------|-----------------------|---------------------|
 
E|7----7-10b12~~--12-7----7---------|7-----------------------------|
B|--10-----------------10---10b12~~~|--10-7------------------------|
G|----------------------------------|-------10p9p7---7---9b11-9-7--|
D|----------------------------------|--------------9---9----------9|
A|----------------------------------|------------------------------|
E|----------------------------------|------------------------------|
 
E|------------------------------|--------------------------------------|
B|-------------------------7b-7b|----------9b-9b---------------------9b|
G|9b11-9-7---7--9b11-9-7---7b-7b|------7---9b-9b-7-7-9-7---9-7---9-7-9b|
D|---------9-------------9------|9-7-9---9---------------9-----9-------|
A|------------------------------|--------------------------------------|
E|------------------------------|--------------------------------------|
 
E|--------------------------------------------|--------------------------------7---------|
B|--------------------------------------------|----------------------------------10-7----|
G|7-9---7-----------------------------7--7---7|7-7---7---7-7---7---7h9-9b11~~---------9p7|
D|----9---9----9-7---------7------7/9------9--|----9---9-----9---9-----------------------|
A|----------9------9\7-7/9----7-9-------------|------------------------------------------|
E|--------------------------------------------|------------------------------------------|
 
E|--------------------------------------------------|-----------------------------------------------|
B|12-12-12-10--10-10--10-9-10-----------------------|-----------------------------------------------|
G|13-13-13-11--11-11--11-9-11--11-9-11-7~--9-7------|-----------------------------------------------|
D|---------------------------------------------9-7h9|--7---7--------7-------------------------------|
A|--------------------------------------------------|9---9---9\7--9---9-7-5-7p5--------------------9|
E|--------------------------------------------------|---------------------------7-5-7/10-10-7-7h10--|
 
                                                         Guitar 2
                                                        E|------------------------7-----------------|
                                                        B|------------------------7-----------------|
                                                        G|-------------9b11~~~~~--------------------|
                                                        D|------------------------------------------|
                                                        A|------------------------------------------|
                                                        E|------------------------------------------|


Guitars now switch, Guitar 1 plays rhythm

  Guitar 2
E|-------------------|-------------------|-------------|----------7--|------7-------7-------7|
B|-------------------|-------------------|-------------|10br12b12-7--|10b12---10b12---10b12--|
G|9b11~~~~~-9b11~~~~~|9b11~~~~~-9b11~~~~~|9b11~~~~~----|-------------|-----------------------|
D|-------------------|-------------------|-------------|-------------|-----------------------|
A|-------------------|-------------------|-------------|-------------|-----------------------|
E|-------------------|-------------------|-------------|-------------|-----------------------|
 
E|------7----------|7----------------------------------------------|---------------|
B|10b12---10b12~~~~|-----------------------------------------------|----10b12~~----|
G|-----------------|--9b11~~~-9pb11-9pb11-9---9b11-9b11-9b11-9b11--|9-7------------|
D|-----------------|------------------------9---------------------9|---------------|
A|-----------------|-----------------------------------------------|---------------|
E|-----------------|-----------------------------------------------|---------------|
 
E|-----------------------------|-----------------------------|-----------------------------|
B|-----------------------------|-----------------------------|-----------------------------|
G|----7-9-7-----7---9----------|----7-9-7-----7---9----------|----7-9-7-----7---9----------|
D|9-9-------9-9---9---9-9-7-7h9|9-9-------9-9---9---9-9-7-7h9|9-9-------9-9---9---9-9-7-7h9|
A|-----------------------------|-----------------------------|-----------------------------|
E|-----------------------------|-----------------------------|-----------------------------|
 
  Guitar 1
E|-----------------------------|7-7-7-7-7-7-7-7-7-7-7-7-7-7-7|7-7-7-7-7-7-7-7-7-7-7-7-7-7-7|
B|-----------------------------|7-7-7-7-7-7-7-7-7-7-7-7-7-7-7|7-7-7-7-7-7-7-7-7-7-7-7-7-7-7|
G|-----------------------------|7-7-7-7-7-7-7-7-7-7-7-7-7-7-7|7-7-7-7-7-7-7-7-7-7-7-7-7-7-7|
D|-----------------------------|7-7-7-7-7-7-7-7-7-7-7-7-7-7-7|7-7-7-7-7-7-7-7-7-7-7-7-7-7-7|
A|-----------------------------|-----------------------------|-----------------------------|
E|-----------------------------|-----------------------------|-----------------------------|
 
  Guitar 2
E|-----------------------------|-----------------------------|-----------------------------|
B|-----------------------------|-----------------------------|-----------------------------|
G|----7-9-7-----7---9----------|----7-9-7-----7---9----------|----7-9-7-----7---9----------|
D|9-9-------9-9---9---9-9-7-7h9|9-9-------9-9---9---9-9-7-7h9|9-9-------9-9---9---9-9-7-7h9|
A|-----------------------------|-----------------------------|-----------------------------|
E|-----------------------------|-----------------------------|-----------------------------|
 
  Guitar 1
E|--------------------------------------------------|9-9-9--7-9-7--7-7-9-7-9-7-9|
B|10-10-10-10-10-10-10-10-10/12-12-12-12-12-12-12-12|9-9-9--7-9-7--7-7-9-7-9-7-9|
G|11-11-11-11-11-11-11-11-11/13-13-13-13-13-13-13-13|9-9-9--7-9-7--7-7-9-7-9-7-9|
D|--------------------------------------------------|---------------------------|
A|--------------------------------------------------|---------------------------|
E|--------------------------------------------------|---------------------------|
 
E|9--9-7-9--9-7-9--9b-9-7---------|
B|9--9-7-9--9-7-9--9b-9-7---------|
G|9--9-7-9--9-7-9--9b-9-7--9-7-9-7|
D|--------------------------------|
A|--------------------------------|
E|--------------------------------|
 

  Guitar 2
E|-----------------------------|-----------------------------|-----------------------------|
B|-----------------------------|-----------------------------|-----------------------------|
G|----7-9-7-----7---9----------|----7-9-7-----7---9----------|----7-9-7-----7---9----------|
D|9-9-------9-9---9---9-9-7-7h9|9-9-------9-9---9---9-9-7-7h9|9-9-------9-9---9---9-9-7-7h9|
A|-----------------------------|-----------------------------|-----------------------------|
E|-----------------------------|-----------------------------|-----------------------------|
 
  Guitar 1
E|10b12-10-7---------------------------------|-------------------------------|
B|-----------10-7----------7------7---10b12~~|10-7-------------------7------7|
G|----------------10b12--9---9--9---9--------|-----9-7---9b11-9-9b11---9b11--|
D|-------------------------------------------|---------9---------------------|
A|-------------------------------------------|-------------------------------|
E|-------------------------------------------|-------------------------------|
 
E|-----------------------------------------|--------------------------|
B|-----7------7------7------7------7------7|--------------------------|
G|9b11---9b11---9b11---9b11---9b11---9b11--|9p7----9p7---7------------|
D|-----------------------------------------|----9------9---9-7--------|
A|-----------------------------------------|-------------------9\7p5--|
E|-----------------------------------------|-------------------------7|

  Guitar 2
E|----------------------------|-----------------------------------|-----------------------------------|
B|-----7-10-7---7-8-7---7-10-7|7-10---7-7-10---7-7-10---7-7-10---7|7-10---7-7-10---7-7-10---7-7-10---7|
G|9b11--------9-------9-------|-----9--------9--------9--------9--|-----9--------9--------9--------9--|
D|----------------------------|-----------------------------------|-----------------------------------|
A|----------------------------|-----------------------------------|-----------------------------------|
E|----------------------------|-----------------------------------|-----------------------------------|
 
 (fading)
  Guitar 1
E|--------------------------------|-------------------------|
B|--------------------------------|-------------------------|
G|----7---7-7h9p7-7-7h9p7-7-7h9p7-|7-7h9p7-7-7h9p7-7-7h9p7-7|
D|7-9---9-------------------------|-------------------------|
A|--------------------------------|-------------------------|
E|--------------------------------|-------------------------|
 
  Guitar 2
E|--------------------------------|--------------------------|-------7----------7-------7-------7|
B|--------------------------------|--------------------------|---------10b12~~----10b12---10b12--|
G|9b11~~~~~~~~~~~~~~~~~~~~~~~~~~~~|--------------------------|9b11~~~----------------------------|
D|--------------------------------|--------------------------|-----------------------------------|
A|--------------------------------|--------------------------|-----------------------------------|
E|--------------------------------|--------------------------|-----------------------------------|

 

| /  slide up
| \  slide down
| h  hammer-on
| p  pull-off
| ~  vibrato
| +  harmonic
| x  Mute note
Добавлено: 03.09.2015
Другие материалы по этой песне:
  • Аккорды и текст

Страница создана 03.09.2015
http://primanota.ru/fleetwood-mac/fighting-for-madge-chords.htm
Привет, Гость.
Предлагаем пройти революционный курс по гитаре.
Подарок от PrimaNota.Ru, забирай!