PrimaNota.ru - самый крупный в мире бесплатный архив песенных текстов, аккордов, табулатур и нот


Fleetwood Mac - If You Let Me Love You - таба, видео

Регистрация Запомнить меня
Войти через:  Facebook Google Twitter Vk Yandex Mail.ru

Fleetwood Mac - If You Let Me Love You - таба, видео

Печатать
Просмотров: 231
Уроки эстрадного вокала в Санкт-Петербурге
-----------------------------------------------------------------
             If You Let Me Love You - Fleetwood Mac                         
-----------------------------------------------------------------

Tabbed By : Aeonoptic
e-mail: aeonoptic@gmail.com

Tuning: EADGBe

Intro
E|--------------------|---------------|-----------------------------------------|
B|------15------------|------15-17----|------15----17b19------------------------|
G|14-16-----------12~-|14-16-------16-|14-16----16--------14--12-14/16-14\12-14-|
D|----------12h14-----|---------------|-----------------------------------------|
A|--------------------|---------------|-----------------------------------------|
E|--------------------|---------------|-----------------------------------------|

E|------------------------------------------------|-----------------15-15b------------|
B|--15--------------------15-17-17b19-17b19-17-15~|---15-17-17b19~---------17-15----15|
G|-x------12-13-14-16----x------------------------|16----------------------------14---|
D|x----14---------------x-------------------------|-----------------------------------|
A|------------------------------------------------|-----------------------------------|
E|------------------------------------------------|-----------------------------------|

E|---------15-15b17-15-12-----------------17--------|17pbr19-----------------------17----|
B|------15--------------------15----17b19----17pb19~|--------17b19--15-17-15-17b19----15~|
G|---16--------------------16----16-----------------|------------------------------------|
D|17------------------------------------------------|------------------------------------|
A|--------------------------------------------------|------------------------------------|
E|--------------------------------------------------|------------------------------------|

E|---------------------------|-------------------------------------|------------------------|
B|15-------------------------|----15-17----17b19----15----15-13b15~|x-15-13-----------------|
G|---16-14-12-------12-------|-16-------16-------14----14----------|x-------14-12br14-10----|
D|------------12-14----12-14~|-------------------------------------|---------------------12-|
A|---------------------------|-------------------------------------|------------------------|
E|---------------------------|-------------------------------------|------------------------|

  <----------picked softly------------>
E|-------------------------------------|----------------------------------|-------------------|
B|-----------------------17----17--15~~|-18-20-20-20b22-20-18-20-18-17-15~|15----15h17-15-----|
G|------12-----------/16----16---------|----------------------------------|---16----------14~-|
D|---12----15-14-12--------------------|----------------------------------|-------------------|
A|14-----------------------------------|----------------------------------|-------------------|
E|-------------------------------------|----------------------------------|-------------------|

Verse 1
 D7
 If you let me love you
E|-------------------------|
B|----------------------12~|
G|-------------------------|
D|-------------------------|
A|-------------------------|
E|-------------------------|
 
There ain't nothing in the world, I wouldn't do for you

E|---------------------------------------------|
B|------------15----------15----------15-------|
G|------15h16----17-14-16----12/14-------14-17~|
D|15-17----------------------------------------|
A|---------------------------------------------|
E|---------------------------------------------|

G7
I said if you let me love you baby

E|---------------------------------------------------|
B|---------------------------------------------------|
G|12br14p10-12-10--12-10-------10-12-12br14p10-12-10~|
D|-----------------------12-12-----------------------|
A|---------------------------------------------------|
E|---------------------------------------------------|
 
D7
I said there ain't nothing in the world I wouldn't do for you

E|---------------------------------------------------------12b14-12-10---------|
B|------13-15-13~--13h15p13--------------13-15-13-12-15-12-------------13-12-10|
G|12h14---------------------12-10--12-14---------------------------------------|
D|-----------------------------------------------------------------------------|
A|-----------------------------------------------------------------------------|
E|-----------------------------------------------------------------------------|

E|-------------|
B|------15-13~-|
G|12-14--------|
D|-------------|
A|-------------|
E|-------------|
 
A7
Yes I would even walk under water woman
       
        G7
E|-----------|
B|-----------|
G|17b19~~~~~-|
D|-----------|
A|-----------|
E|-----------|

D7
Just to hear you say that you love me too

E|----------10--------------------------10---------------|
B|----10-12-----------------------10-12------------10----|
G|/11----------9-11---11-9----/11--------------/11-------|
D|-------------------------12--------------12------------|
A|----------------------------------------------------12-|
E|-------------------------------------------------------|
 
Verse 2

D7
If you let me love you
I would never let you feel the cold
G7
Cos I would buy you a thousand years woman
                                 C#7-C7-C#7-D7
Just so you would never grow old
D7
If you let me love you
I said there ain't nothing in the world, I wouldn't do for you

E|10----12b14-10----10---------------------------------------|
B|---10----------13----13b15~---12-10--------------------10~-|
G|------------------------------------13-12-10-------/11-----|
D|---------------------------------------------12-12---------|
A|-----------------------------------------------------------|
E|-----------------------------------------------------------|

A7                                      
Yes I would even walk under water, woman 

E|12b14-10----10--------|
B|---------12----13b15~-|
G|----------------------|
D|----------------------|
A|----------------------|
E|----------------------|

G7                                     D7
Just to hear you say, that you love me too


SOLO
(Note the progression is the same, just a pain to properly divide the bar lines, 
which may be inaccurately placed)

E|10----12b14-10----10---------12b14-13b15-15b17--------------------------------------|
B|---12----------12----12-------------------------10-------------10--10-------10------|
G|------------------------11-------------------------12-11-12-13--------12-11----9-h11|
D|------------------------------------------------------------------------------------|
A|------------------------------------------------------------------------------------|
E|------------------------------------------------------------------------------------|

E|------17--17br19-----------15b17-15-13-15-13br15-----------10----12b14-10-10----12b14------|
B|17b19------------17b19-15------------------------15-15--12----12-------------12-------10-10|
G|-------------------------------------------------------------------------------------------|
D|-------------------------------------------------------------------------------------------|
A|-------------------------------------------------------------------------------------------|
E|-------------------------------------------------------------------------------------------|
 
E|---10-13b15-10-----|----17-16-15----15------------------15-17-------------------------------|
B|12-------------13--|-15----------18----18-17-15~--18b20-------17p15----15-17--17-17p15----15|
G|-------------------|------------------------------------------------16-----------------16---|
D|-------------------|------------------------------------------------------------------------|
A|-------------------|------------------------------------------------------------------------|
E|-------------------|------------------------------------------------------------------------|

E|--------------------|-----13-15-br17-13~-------------------17---------------------|
B|--------------------|--15----------------------15----17b19-------15----17br19-br19|
G|14-12-------12b-10~-|-x---------------------16----16----------16----16------------|
D|------12-14---------|x------------------------------------------------------------|
A|--------------------|-------------------------------------------------------------|
E|--------------------|-------------------------------------------------------------|
 
E|18b20-17-15--------------------17----------|----------------15-15-17--------------|
B|------------17-15----15--17b19----17b19----|----15----18b20----------17b19-15~~~~~|
G|------------------16--------------------14~|-16----16-----------------------------|
D|-------------------------------------------|--------------------------------------|
A|-------------------------------------------|--------------------------------------|
E|-------------------------------------------|--------------------------------------|
 
E|---------15-15-17--------------|------15-15b16-12----------|------------------------------------------|
B|---17b19----------15-15-17-----|17b19-------------15-15-15-|------17b19-17-15h17p15----15-------------|
G|16-----------------------------|---------------------------|16-16-------------------16----14-12br14p10|
D|-------------------------------|---------------------------|------------------------------------------|
A|-------------------------------|---------------------------|------------------------------------------|
E|-------------------------------|---------------------------|------------------------------------------|
 
E|-------------10-----------------------|14------------------------|15br17p13-----|
B|------10-13-x------------10--12----10~|---15----15---------------|----------15~-|
G|---12--------------10h11--------11----|------14----14-17~~-------|--------------|
D|12--------------12--------------------|--------------------------|--------------|
A|--------------------------------------|--------------------------|--------------|
E|--------------------------------------|--------------------------|--------------|
 
E|---13-15-13-15b17-15b17~~|---13-15-13-15b17-15|13h15p13--------------------------|
B|15-----------------------|15------------------|---------15--15----------15----13~|
G|-------------------------|--------------------|----------------14-12/14----14----|
D|-------------------------|--------------------|----------------------------------|
A|-------------------------|--------------------|----------------------------------|
E|-------------------------|--------------------|----------------------------------|
 
E|----------------13----------------------------------|10------------------|
B|13-/15-15~~--15----13-15--13-------------10---------|---13-10------------|
G|-----------------------------14-12-10h12----10------|---------12-10------|
D|-----------------------------------------------12-12|---------------12-12|
A|----------------------------------------------------|--------------------|
E|----------------------------------------------------|--------------------|
 
E|------------------------------------------10--------|13p10----10------------|
B|13-10---------10-----------------------10-----------|------13----10---------|
G|------12br14-----12-10--------------10----------10b-|---------------12-10---|
D|-----------------------12-12--10/12----------12-----|---------------------12|
A|----------------------------------------------------|-----------------------|
E|----------------------------------------------------|-----------------------|
 
E|-------------------------------------------------------------|
B|------13-15-13--10h13p10----10-------------------------------|
G|12/14--------------------12----10----------------------------|
D|----------------------------------12--12p10------------------|
A|--------------------------------------------12-11-10-8-7-5-3-|
E|-------------------------------------------------------------|
 
E|------------------------------------|----------------------------------|
B|------------------------------------|----------------------------------|
G|------------------------------------|----------------------------------|
D|----------------------------------3-|--3~-----------------7------------|
A|----5---7----7h9p7---7-5-5-7--0-3---|3----6-5-5-3---5/7-5---5-5-5-5-5-5|
E|5-7---7---7--------7----------------|----------------------------------|
 
E|---------------------------------------------|------------------|
B|---------------------------------------------|------------------|
G|---------------------------------------------|------------------|
D|---------------------------------------------|------------------|
A|--5-7-7/9\7--8h10p8-10-10br11p8-10-8-7-5-5---|5-----------------|
E|7------------------------------------------7-|--7-6-5-3-5-------|
 
E|---18b20-18-15-15--------------------|----18b20-17-15--15----15\13------|
B|15----------------15----15-15-15-h17-|15~-----------------18-------15---|
G|---------------------16--------------|--------------------------------14|
D|-------------------------------------|----------------------------------|
A|-------------------------------------|----------------------------------|
E|-------------------------------------|----------------------------------|
 
E|---18b20~-18-15b-15-17----------------------------------------------|
B|15---------------------17-15----15--18-20br22-18-20-18b20-18p17p15~-|
G|-----------------------------16-------------------------------------|
D|--------------------------------------------------------------------|
A|--------------------------------------------------------------------|
E|--------------------------------------------------------------------|
 
E|--------------------17-------------------------------|-----------------------|
B|---15-17br19-p15h17----17pbr19-15~-----18b20-18pb20~~|19-18-15---------------|
G|17----------------------------------17---------------|---------17-14----11-14|
D|-----------------------------------------------------|---------------12------|
A|-----------------------------------------------------|-----------------------|
E|-----------------------------------------------------|-----------------------|
 
E|------12----17b19-----------17br19-17p15--17p15-------------------17-19-|
B|12-15----15-------15----------------------------15-------15-17b19-------|
G|---------------------16----------------------------14-16----------------|
D|------------------------17----------------------------------------------|
A|------------------------------------------------------------------------|
E|------------------------------------------------------------------------|
 
E|----------------------------|----18b20-18--15-17-------17-19------------|
B|17pbr19p15-15----15---------|--------------------17b19-------15-15~~~~~-|
G|--------------16----16-14-16|-17----------------------------------------|
D|----------------------------|-------------------------------------------|
A|----------------------------|-------------------------------------------|
E|----------------------------|-------------------------------------------|
 
E|---------------------------------|------------------------------------------------------17-----|
B|---15----18b20-17b19-15----15~---|18b20-17b19-17p15----15-17~--17br19-15h17p15-15----15----15~~|
G|16----16----------------16-----16|------------------16----------------------------16-----------|
D|---------------------------------|-------------------------------------------------------------|
A|---------------------------------|-------------------------------------------------------------|
E|---------------------------------|-------------------------------------------------------------|
 
E|-----18--------------20--------------17----|---18b20-17-15----------|
B|15~~----15~-15-15-15----15--15-17b19-------|15-------------17-15----|
G|----------------------------------------14~|---------------------16~|
D|-------------------------------------------|------------------------|
A|-------------------------------------------|------------------------|
E|-------------------------------------------|------------------------|
 
E|------18b20-17-16-15-----------------|---------18b20~-17-15----15---|
B|15-15----------------17-15-17-15-----|15-15-15--------------17------|
G|---------------------------------16\-|------------------------------|
D|-------------------------------------|------------------------------|
A|-------------------------------------|------------------------------|
E|-------------------------------------|------------------------------|
 
E|18b20-17-15----15-----------------15-17-15-13h15p13------------------|
B|------------17----15-----15-18b20-------------------15h1p15----15-17b|
G|----------------------16------------------------------------16-------|
D|---------------------------------------------------------------------|
A|---------------------------------------------------------------------|
E|---------------------------------------------------------------------|
 
E|------15-18b20--18-17-15-------------|---------------------------|
B|18b20--------------------18-18pb20-15|---------------------------|
G|-------------------------------------|-12b14(x11)-12br14p10----10|
D|-------------------------------------|----------------------12---|
A|-------------------------------------|---------------------------|
E|-------------------------------------|---------------------------| 

E|------------------------|-------------------------------------| 
B|------------------------|-------------------------------------| 
G|------------------------|----------------------------------7--| 
D|12p10-------------------|------------7---------------5h7/9---9| 
A|------12p10\8--/8-------|----5---7/9---9\7-5-7---5h7----------| 
E|-----------------9\7\5~-|5-7---7---------------7--------------| 

E|------10----12b14-10----10-----------|---15br17p13----13-------| 
B|10-12----12----------12----13b15~~~--|15-----------15----15-15-| 
G|-------------------------------------|-------------------------| 
D|-------------------------------------|-------------------------| 
A|-------------------------------------|-------------------------| 
E|-------------------------------------|-------------------------| 

E|15br17~-13-15~-13------|10----12b14-12-10h12p10----10-------------------------------------------| 
B|------------------15~--|---12-------------------12----13----------------------------------------| 
G|-----------------------|---------------------------------12br14p10----12-10---------------------| 
D|-----------------------|-------------------------------------------12-------12-10---------------| 
A|-----------------------|----------------------------------------------------------12-10---------| 
E|-----------------------|----------------------------------------------------------------13-12-10| 

E|--------------------------10-------------|-------------------| 
B|--------------------10-12----13b-12-10---|-10h12p10-10----10~|
G|-----12-10----10h11--------------------12|-------------12----|
D|--12-------12----------------------------|-------------------| 
A|-x---------------------------------------|-------------------| 
E|x----------------------------------------|-------------------| 

Verse 3

D7
If you let me love you
There ain't nothing in the world I wouldn't do for you

E|------------------------------|
B|------------------------------|
G|------------------------------|
D|----------7-9-------9-7-------|
A|----5-7/9-----9\7-5-----5/7-5-| 
E|5/7---------------------------|

G7
I said if you let me love you baby

E|--------------------------------------------------------------| 
B|--------------------------------------------------------------| 
G|--------------------------------------------------------------| 
D|------------------7/9\7------------------------------7/9\7----| 
A|9\7p5-7---5-7-7p5-------7p5---5---5-7/9\7-7~-5h7p5---------5~-|
E|--------7-------------------7---7------------------7----------| 
 
D7
I said there ain't nothing in the world I wouldn't do for you

E|---14-10-12------------------|
B|10----------10--10-----------|
G|-------------------12-11-----|
D|-------------------------12--|
A|-----------------------------|
E|-----------------------------|

A7                                         G7
Yes and I would even walk under water woman
D7
Just to hear you say, that you love me tooOOOoooo

E|--------------13b15-13~~~-----10----10----------|12--10------------------------------------| 
B|-----10-12-10--------------13----13----13br15p10|-------10---------------------------------| 
G|9h11--------------------------------------------|----------12-11---------------------------| 
D|------------------------------------------------|----------------12------------------------| 
A|------------------------------------------------|-------------------12-10-------------5----| 
E|------------------------------------------------|-------------------------12-5/10\5-7---7\5| 
 
| /  slide up
| \  slide down
| h  hammer-on
| p  pull-off
| ~  vibrato
| +  harmonic
| x  Mute note
Добавлено: 20.09.2015
Другие материалы по этой песне:
  • Аккорды и текст

Страница создана 20.09.2015
http://primanota.ru/fleetwood-mac/if-you-let-me-love-you-chords.htm
Привет, Гость.
Предлагаем пройти революционный курс по гитаре.
Подарок от PrimaNota.Ru, забирай!