PrimaNota.ru - самый крупный в мире бесплатный архив песенных текстов, аккордов, табулатур и нот


Fleetwood Mac - Only You Live - таба, видео

Регистрация Запомнить меня
Войти через:  Facebook Google Twitter Vk Yandex Mail.ru

Fleetwood Mac - Only You Live - таба, видео

Печатать
Просмотров: 167
-----------------------------------------------------------------
                    Only You - Fleetwood Mac
-----------------------------------------------------------------

Tabbed By : Aeonoptic
e-mail: aeonoptic@gmail.com

Tuning: EADGBe

From Live in Boston CD 1.

Chords:
Amin    x02210
Amin/G  302210
Amin/F# 202210
F       1x3211
E       022100

Played in a descending sequence above the lyrics:

Only you
Got all I need
Only you
Got all I need

Until:

F#   E F#  Amin F#    E Amin
When I see you, going around
F#   E F#  Amin F#    E Amin E
When I see you, going around

E|------------|
B|------------|
G|----4-------|
D|--6---6\4---|
A|7---------7~|x4
E|------------| 


Only you
Got all I need
Only you
Give me all I need

Until:

F#   E F#  Amin F#    E Amin
When I see you, going around
F#   E F#  Amin F#    E Amin E
When I see you, going around

E|------------|
B|------------|
G|----4-------|
D|--6---6\4---|
A|7---------7~|x4
E|------------| 

Solo
E|--------------|---------------------|----------|------------|---------------------|----------|
B|-----------10\|10--8----------------|----------|------------|10-8-----------------|----------|
G|5-7/9~~~~~----|------7--7b9-7p5-----|----5-----|5--7b9~~~~~~|-----7~~-7b9-7p5-----|----5-----|
D|--------------|-----------------7-7~|5h7---7~~~|------------|-----------------7-7~|5/7---7~~~|
A|--------------|---------------------|----------|------------|---------------------|----------|
E|--------------|---------------------|----------|------------|---------------------|----------|

E|---------------|----------|--------------|----------------|----------|--------------|
B|---------------|----------|--------------|----------------|----------|--------------|
G|---------------|--6-------|9b11-9-6---6~~|----------------|--6-------|9b11-9-6---6~~|
D|--------7---7--|9----9-7--|---------9----|---------7---7--|9----9-7--|---------9----|
A|--7-9-9---9---9|---------9|--------------|--7-9-9~---9---9|---------9|--------------|
E|9--------------|----------|--------------|9---------------|----------|--------------|

E|----------------|------------------------------|-------------------------------|-----------------------------|
B|------12--------|12b14-12-9----------12--------|------12-------12-------11-----|12b14-12-9----------12-------|
G|11b13----11b-9~~|-----------11-11b13----11b-9~~|11b13----11b13----11b13----11-9|-----------11-11b13----11b-9~|
D|----------------|------------------------------|-------------------------------|-----------------------------|
A|----------------|------------------------------|-------------------------------|-----------------------------|
E|----------------|------------------------------|-------------------------------|-----------------------------|

Over this section of the solo, guitar 2 plays Amin and Dmin7 arpeggiated chords

E|-------|----------|-----------------|----------------|----------------|----------------|----------------|
B|--10~~~|--10-10~~~|--10-10-8--------|----------7-5b-7|----------7-5b-7|----------7-5b-7|----------------|
G|9------|9---------|9---------9p7\5~~|------5---7-5b-7|------5---7-5b-7|------5---7-5b-7|------5---7b9~~~|
D|-------|----------|-----------------|--5-7---7-------|--5-7---7-------|--5-7---7-------|--5-7---7-------|
A|-------|----------|-----------------|7---------------|7---------------|7---------------|7---------------|
E|-------|----------|-----------------|----------------|----------------|----------------|----------------|

E|5------5-------|---------------------------|-----------------------|--------------------|
B|5-8b10---8-5b--|8b10-8-5---5~~----5--------|-----------------------|--------------------|
G|--------------7|---------7------7---7-5----|7b9-7-5-7-5------------|----------5br7------|
D|---------------|------------------------7-7|------------7-7~-/7-7-7|/7-7-7-/7------7-5-7|
A|---------------|---------------------------|-----------------------|--------------------|
E|---------------|---------------------------|-----------------------|--------------------|

E|---------------|------------|--------------|---------------------8|
B|---------------|-----------5|--------------|--------------5-8/10--|
G|------5-7--9~~~|------5-7---|------5-7b9~~~|------5-7-5-7---------|
D|--5-7----------|--5-7-------|--5-7---------|--5-7-----------------|
A|7--------------|7-----------|7-------------|7---------------------|
E|---------------|------------|--------------|----------------------|

E|------15-------15-------15-------15|------15-------15-------15----------------|
B|15b17----15b17----15b17----15b17---|15b17----15b17----15b17----15br17p13----13|
G|-----------------------------------|-------------------------------------14-14|
D|-----------------------------------|------------------------------------------|
A|-----------------------------------|------------------------------------------|
E|-----------------------------------|------------------------------------------|

E|------15--12-12--15-12--------15b17~~|15-12------------------|----------------------|
B|15b17------------------15br17--------|------15br17p13-15-----|15-13-15-13-15b17~~~~~|
G|-------------------------------------|-------------------14~~|----------------------|
D|-------------------------------------|-----------------------|----------------------|
A|-------------------------------------|-----------------------|----------------------|
E|-------------------------------------|-----------------------|----------------------|

Back to standard progression

E|----------|---------------------|5-8-5~~~|------------12-------12-------12|15b17~~--15-12---------|
B|----------|10-8------3/5--------|--------|13-15-15b17----15b17----15b17---|---------------15b17~~~|
G|5-7b9~~~~~|-----7~~------7p5----|--------|--------------------------------|-----------------------|
D|----------|------------------7-7|--------|--------------------------------|-----------------------|
A|----------|---------------------|--------|--------------------------------|-----------------------|
E|----------|---------------------|--------|--------------------------------|-----------------------|

E|12-15b17~~-15-12--------------------|------------|----------------------------|----------------|
B|-----------------15b17~~--15p13-----|--8-10-10~~~|----------------------------|----------------|
G|--------------------------------14~~|9-----------|-------------------6--------|9b11-9-6---6---6|
D|------------------------------------|------------|---------7---7---9---9-7----|---------9---9--|
A|------------------------------------|------------|--7-9-9----9---9---------9~~|----------------|
E|------------------------------------|------------|9---------------------------|----------------|

E|---------------------------|--------------|------------------|--------------------------------|
B|---------------------------|--------------|------12----------|12b14-12-9----------12----------|
G|------------------6--------|9b11-9-6---6~~|11b13----11b13-9~~|-----------11-11b13----11b13-9~~|
D|--------7---7---9---9-7----|---------9----|------------------|--------------------------------|
A|--7-9-9---9---9---------9~~|--------------|------------------|--------------------------------|
E|9--------------------------|--------------|------------------|--------------------------------|


E|---------------------------------|------------------------------|5~------|
B|------12-------12-------12-------|12b14-12-9----------12--------|7~------|
G|11b13----11b13----11b13----11-9~~|-----------11-11b13----11b-9~~|7~------|
D|---------------------------------|------------------------------|7~------|
A|---------------------------------|------------------------------|5~------|
E|---------------------------------|------------------------------|--------|

| /  slide up
| \  slide down
| h  hammer-on
| p  pull-off
| ~  vibrato
| +  harmonic
| x  Mute note
Добавлено: 20.09.2015
Другие материалы по этой песне:
  • Аккорды и текст

Страница создана 20.09.2015
http://primanota.ru/fleetwood-mac/only-you-live-chords.htm
Привет, Гость.
Предлагаем пройти революционный курс по гитаре.
Подарок от PrimaNota.Ru, забирай!