PrimaNota.ru - самый крупный в мире бесплатный архив песенных текстов, аккордов, табулатур и нот


Fidlar - The Punks Are Finally Taking Acid - бас-таба, видео

Регистрация Запомнить меня
Войти через:  Facebook Google Twitter Vk Yandex Mail.ru

Fidlar - The Punks Are Finally Taking Acid - бас-таба, видео

Печатать
Просмотров: 103
THE PUNKS ARE FINALLY TAKING ACID BASS TAB By: AL Christakis


    G|--------------------------------------------------------------|
    D|-----5b6---------------------------5b6------------------------|
x1  A|----------7-----7--7-------5h7----------7-----7---------------|
    E|--0----------0--------5h7-------0----------0-------5--6--7----|

    G|--------------------------------------------------------------|
    D|-----5b6---------------------------7p5------------------------|
x1  A|----------7-----7--7-------5h7----------7-----7---------------|
    E|--0----------0--------5h7-------0----------0-------5--6--7----|

    G|---------------------------------------------------------|
    D|---------------------------------------------------------|
x2  A|-----7--7-----7--7--------------7--7-----7--7-------5h7--|
    E|--0--------0--------3--5--3--0--------0--------5h7-------|

    G|--------------------------------------------------------------|
    D|-----5b6---------------------------5b6------------------------|
x1  A|----------7-----7--7-------5h7----------7-----7---------------|
    E|--0----------0--------5h7-------0----------0-------5--6--7----|

    G|--------------------------------------------------------------|
    D|-----5b6---------------------------7p5------------------------|
x1  A|----------7-----7--7-------5h7----------7-----7---------------|
    E|--0----------0--------5h7-------0----------0-------5--6--7----|


    G|---------------------------------------------------------|
    D|---------------------------------------------------------|
x4  A|-----7--7-----7--7--------------7--7-----7--7-------5h7--|
    E|--0--------0--------3--5--3--0--------0--------5h7-------|


   G|---------------------------------------------------------|
   D|---------------------------------------------------------|
x1 A|---------------------------------------------------------|
   E|--0 (hold note)------------------------------------------|

     G|-----------------------------------------------------------|
     D|-----5b6---------------------------7p5---------------------|
x2   A|----------7-----7--7-------5h7----------7-----7------------|
     E|--0----------0--------5h7-------0----------0-----5--6--7---|




                   G|-----------------------------------------------------------|
                   D|-----5b6---------------------------7p5---------------------|
x3(in background)  A|----------7-----7--7-------5h7----------7-----7------------|
                   E|--0----------0--------5h7-------0----------0-----5--6--7---|
Добавлено: 30.10.2015
Другие материалы по этой песне:
  • Аккорды и текст

Страница создана 30.10.2015
http://primanota.ru/fidlar/punks-are-finally-taking-acid-chords.htm
Привет, Гость.
Предлагаем пройти революционный курс по гитаре.
Подарок от PrimaNota.Ru, забирай!