PrimaNota.ru - самый крупный в мире бесплатный архив песенных текстов, аккордов, табулатур и нот


Fidlar - Black Out Stout - аккорды и текст, бас-таба, видео

Регистрация Запомнить меня
Войти через:  Facebook Google Twitter Vk Yandex Mail.ru

Fidlar - Black Out Stout - аккорды и текст, бас-таба, видео

Печатать
Просмотров: 215
Уроки эстрадного вокала в Санкт-Петербурге
Авторы: FIDLAR

Black Out Stout
Fidlar
SONG:   BLACK OUT STOUT
ARTIST: FIDLAR
TAB BY: DON CZARSKI
EMAIL:  GUITARZAN7@HOTMAIL.COM


              BLACK OUT STOUT
                  FIDLAR

INTRO:
Dm Dsus4 Dm  A Asus4 A  G G    
Dm Dsus4 Dm  A Asus4 A  G G


VERSE:
Dm                      A        
I told my girl I can't see the light
 G
Take my hand and it'll be all right
Dm                  A        G   
Shoulda never gone out toni-ight 


CHORUS:
 Dm     A     G
Ahhhh-ahhhh-ahhhh
                    Dm    A     G
I can't find my way hooo-oooo-oooome

I can't find my way!


*VERSE: GUITAR 1 (PLAYS THESE CHORDS)
Dm                   A
Walk alone and it's hard to breathe
 G
Take a hit, I'm fallin' to my knees
Dm           A            G
Somebody is following me-eeee

*VERSE:
Dm                       A
Brother's laughing at me on the phone
G
Let's go into unknown
Dm            A       G
Can't wait to be alo-one

GUITAR 2: (PLAYS THE FOLLOWING OVER THE 
           *VERSE CHORDS ABOVE - 
           LISTEN FOR TIMING, ETC.)

E --------------------------------------------
B --------------------------------------------
G -7-7-5-7-5-7-5------------------------------
D ---------------7-5-7---5-3-5-3-5-3---5-3-5--
A --------------------------------------------
E --------------------------------------------

E --------------------------------------------
B --------------------------------------------
G -7-7-5-7-5-7-5------------------------------
D ---------------7-5-7---5-3-5-3--------------
A --------------------------------------------
E --------------------------------------------

E --------------------------------------------
B --------------------------------------------
G -7-7-5-7-5-7-5------------------------------
D ---------------7-5-7---5-3-5-3-5-3---5-3-5--
A --------------------------------------------
E --------------------------------------------

E --------------------------------------------
B --------------------------------------------
G -7-7-5-7-5-7-5------------------------------
D ---------------7-5-7---5-3-5-3--------------
A --------------------------------------------
E --------------------------------------------


CHORUS:
Dm      A     G
Ahhhh-ahhhh-ahhhh
                    Dm    A     G
I can't find my way hooo-oooo-oooome
                    Dm    A     G
I can't find my way hooo-oooo-oooome
                    Dm    A     G
I can't find my way hooo-oooo-oooome
                      
I can't find my way!


BREAK:
GUITAR 1:   G A   G G   G A   G G


GUITAR 2: (PLAYS THE FOLLOWING 
           LISTEN FOR TIMING, ETC.)

E --------------------------------------------
B --------------------------------------------
G -12-12-10-12-10-9~~~--12-12-10-12-10--------
D -------------------------------------12-----
A --------------------------------------------
E --------------------------------------------

E --------------------------------------------
B --------------------------------------------
G -12-12-10-12-10-9~~~--12-10-12-10-12-10-----
D ----------------------------------------12\-
A --------------------------------------------
E --------------------------------------------


VERSE:
Dm             A
Gotta find a place to sleep
 G
Skid row, lost a couple teeth
Dm           A           G
Somebody is following me-ee


*VERSE:
Dm             A
Woke up in my dealer's car
 G
Tattoo on my arm
Dm    A   G 
F-I-D-L-A-R


GUITAR 2: (PLAYS THE FOLLOWING OVER THE 
           *VERSE CHORDS ABOVE - 
           LISTEN FOR TIMING, ETC.)

E --------------------------------------------
B --------------------------------------------
G -7-7-5-7-5-7-5------------------------------
D ---------------7-5-7---5-3-5-3-5-3---5-3-5--
A --------------------------------------------
E --------------------------------------------

E --------------------------------------------
B --------------------------------------------
G -7-7-5-7-5-7-5------------------------------
D ---------------7-5-7---5-3-5-3--------------
A --------------------------------------------
E --------------------------------------------


CHORUS:
Dm      A     G
Ahhhh-ahhhh-ahhhh
                    Dm    A     G
I can't find my way hooo-oooo-oooome
                    Dm    A     G
I can't find my way hooo-oooo-oooome
                    Dm    A     G
I can't find my way hooo-oooo-oooome
                     Dm A G G    Dm A G G   
I can't find my way!


OUTRO: GUITAR 1
Dm          A     G
Ah ah ah ah ah    Ah ah ah ah ah
Dm          A     G
Ah ah ah ah ah    Ah ah ah ah ah
Dm          A     G
Ah ah ah ah ah    Ah ah ah ah ah
Dm          A     G
Ah ah ah ah ah    Ah ah ah ah ah
 Dm
Woooh

GUITAR 2: (PLAYS THE FOLLOWING OVER THE 
           **OUTRO CHORDS ABOVE - 
           LISTEN FOR TIMING, ETC.)

E --------------------------------------------
B --------------------------------------------
G -12-12-10-12-10-9~~~--12-12-10-12-10--------
D -------------------------------------12-----
A --------------------------------------------
E --------------------------------------------

E --------------------------------------------
B --------------------------------------------
G -12-12-10-12-10-9~~~--12-10-12-10-12-10-----
D ----------------------------------------12--
A --------------------------------------------
E --------------------------------------------

E --------------------------------------------
B --------------------------------------------
G -12-12-10-12-10-9~~~--12-12-10-12-10--------
D -------------------------------------12-----
A --------------------------------------------
E --------------------------------------------

E --------------------------------------------
B --------------------------------------------
G -12-12-10-12-10-9~~~--12-10-12-10-12-10-----
D ----------------------------------------12\-
A --------------------------------------------
E --------------------------------------------
Добавлено: 05.11.2015
Другие материалы по этой песне:
  • Аккорды и текст

Страница создана 05.11.2015
http://primanota.ru/fidlar/black-out-stout-chords.htm
Привет, Гость.
Предлагаем пройти революционный курс по гитаре.
Подарок от PrimaNota.Ru, забирай!