PrimaNota.ru - самый крупный в мире бесплатный архив песенных текстов, аккордов, табулатур и нот


Fidlar - Oh - таба, видео

Регистрация Запомнить меня
Войти через:  Facebook Google Twitter Vk Yandex Mail.ru

Fidlar - Oh - таба, видео

Печатать
Просмотров: 105
+++++++++++++++++++++++++++++++++++++++++++++++++++++++++++++
BAND     :  FIDLAR                                          +
SONG     :  OH                                              +
ALBUM    :  DIYDUI (2011)                                   +
TUNING   :  STANDARD (EADGBE)                               +
TABBED BY:  KOVÁCS MÁRK (NIDALEOP@GMAIL.COM)                +
                                                            +
FOR TIMING : https://www.youtube.com/watch?v=eUWTDScg93c    +
                                                            +
+++++++++++++++++++++++++++++++++++++++++++++++++++++++++++++


Intro and Main Riff: (0:07-0:22)

    A5   D5          Gb5   B5
e|--------------------------------------|         \
B|--------------------------------------|          \
G|-------7-----7-----------4-----4------|  (4x)     \
D|-7--7--7--7--7--7--4--4--4--4--4--4---|            \
A|-7--7--5--7--5--7--4--4--2--4--2--4---|             \
E|-5--5-----5-----5--2--2-----2-----2---|              \
                                                        \
This can be heard too:                                   \
                                                         /      SAME TIME
      3x          >    1x  (bend 3x)                    / 
e|----------------|-------------------|                /   
B|----------------|-------------------|               /
G|----------4-4-2-|-----2-4b-4b-4b-2--| (2x)         /
D|--4--4--4-------|4--4---------------|             /
A|----------------|-------------------|            /
E|----------------|-------------------|           /


(0:22-0:51)

       A              Gb
e|-----------------------------|
B|-----------------------------|
G|-----6--------------3--------| (8x)
D|-------7--------------4------|
A|---7-----7--------4-----4----|
E|-5--------------2------------|


Hook (1:21)

  D5   B5    A5 G5  E5
e|-------------------------------------|        \
B|-------------------------------------|         \
G|-7-----------------------------------| (4x)     \ 
D|-7--9-9-9-7-7-5-5-2-2/5\2-2-2--------|           \
A|-5--9-9-9-7-7-5-5-2-2/5\2-2-2--------|            \
E|----7-7-7-5-5-3-3-0-0---0-0-0--------|             \
                                                      \        SAME TIME
Heavy fuzz can be heard:                              /        
                                                     /
e|-----------------------------|                    /
B|-----------------------------|                   /
G|-----------------------------| (4x)             /
D|-----------------------------|                 / 
A|-----------------------------|                /
E|-10-7-7-7-5-5-0-0-3-0-0-3-0--|               /

************************************

| /   slide up
| \   slide down
| h   hammer-on
| p   pull-off
| ~   vibrato
| +   harmonic
| x   Mute note
| b   Bend
| pb  Pre-bend
| br  Bend release
| pbr Pre-bend release
| brb Bend release bend

************************************
Добавлено: 05.11.2015
Другие материалы по этой песне:
  • Аккорды и текст

Страница создана 05.11.2015
http://primanota.ru/fidlar/oh-chords.htm
Привет, Гость.
Предлагаем пройти революционный курс по гитаре.
Подарок от PrimaNota.Ru, забирай!