PrimaNota.ru - самый крупный в мире бесплатный архив песенных текстов, аккордов, табулатур и нот


Fernando Sor - Opus 35 No 17 In D - таба, видео

Регистрация Запомнить меня
Войти через:  Facebook Google Twitter Vk Yandex Mail.ru

Fernando Sor - Opus 35 No 17 In D - таба, видео

Печатать
Просмотров: 241
E-|---Song:-Opus35-No-17-in-D----------------------|
A-|---Composer:-Fernando-Sor-----------------------|
D-|---Transcription-by:Christian Liang-------------|
G-|---E-Mail:christian.liang@gmail.com-------------|   
B-|---http://www.classclef.com---------------------|
E-|---Enjoy!---------------------------------------|


Op35 No17 in D (Segovia Study No 6) Fernando Sor (1778-1839)

p = pulgar = thumb
i = indice = index
m = medio = middle
a = anular = ring


[1]                     II...........               

E|------------------------|-2--------2--0--------0-|
B|------------------------|------------------------|
G|----------------------2-|-------2-----------0----|
D|------------------------|----0-------------------|
A|------------------------|----------------0-------|
E|------------------------|------------------------|
   |  |  |  |  |  |  |  |   |  |  |  |  |  |  |  |   
RH                      i   m  p  i  a  m  p  i  a   

LH                      1   1     1  1               

[3]II......................

E|----------2-------------|-------------0----------|
B|-3----------------------|-0--------0-----------3-|
G|-------------2--------2-|-------0----------------|
D|-------4-----------4----|-------------------2----|
A|----5-----------5-------|------------------------|
E|------------------------|----3-----------4-------|
   |  |  |  |  |  |  |  |   |  |  |  |  |  |  |  |  
RH m  p  i  a  m  p  i  m   a  p  i  m  a  p  i  m  

LH 2  4  3  1  1  4  3  1      2           3  1  2

[5]      II...........................

E|------------------------|-2--------2--0--------0-|
B|-3--------2--5----------|------------------------|
G|----------------------2-|-------2-----------0----|
D|-------2-----------2----|----0-------------------|
A|----0-----------0-------|----------------0-------|
E|------------------------|------------------------|
   |  |  |  |  |  |  |  |   |  |  |  |  |  |  |  |  
RH m  p  i  m  a  p  i  m   a  p  i  a  m  p  i  a   
								                    

LH 2     1  1  4     1  1   1     1  1    
           
[7]

E|------------------------|-0--------------------0-|
B|-3--------3--4--------4-|----------0--2----------|
G|------------------------|-------0-----------0----|
D|-------4-----------4----|-------2-----------2----|
A|----2-----------0-------|----------------0-------|
E|------------------------|----3-------------------|
   |  |  |  |  |  |  |  |   |  |  |  |  |  |  |  |    
RH m  p  i  m  m  p  i  m   a  p  m  a  m  p  m  a
                                  i           i
LH 2  1  3  2  4     3  4      2  1     3     1


[9]II...........                                              

E|----------------------2-|-0--------0-------------|
B|-3----------------------|-------------4--------4-|
G|-------2----------------|-------2-----------2----|
D|-4--------4-------------|------------------------|
A|----5--------5----------|----4-----------3-------|
E|------------------------|------------------------|
   |  |  |  |  |  |  |  |   |  |  |  |  |  |  |  |  
RH m  p  m  i  p        m   i  p  i  a  m  p  i  m   
   p
LH 2  4  1  3  4        1      3  1     4  2  1  4      
   3

[11]                 II (hinged)......

E|-0--------0-------------|----------------------0-|
B|-------------2--------2-|-3--------3--0----------|
G|-------2-----------2----|-------------------1----|
D|------------------------|-------4--------2-------|
A|----4-----------0-------|----2-------------------|
E|------------------------|------------------------|
   |  |  |  |  |  |  |  |   |  |  |  |  |  |  |  |   
RH a  p  i  a  m  p  i  m   m  p  i  m  m  p  i  a

LH 3  1     1     1  1   2   1 3  2     2  1 

[13]                                                                

E|----------------------0-|-0--------0--1--------1-|
B|-3-----------2----------|------------------------|
G|-------1-----2----------|-------2-----------2----|
D|----2-----2-----2-------|------------------------|
A|-------------------0----|----4-----------4-------|
E|------------------------|------------------------|
   |  |  |  |  |  |  |  |   |  |  |  |  |  |  |  |  
RH m  p  i  p  m  p  p  a   m  p  i  a  m  p  i  a   
               i                                    
LH 4  2  1  2  4  2            4  2     1  4  2  1  
               3

[15]              I..........

E|-2--------2-------------|------------------------|
B|-------------0--------1-|-2--------2--3-----0--0-|
G|-------2-----------2----|-------2--------------1-|
D|----0-----------1-------|----2-----------2-------|
A|------------------------|------------------------|
E|------------------------|-------------0----------|
|  |  |  |  |  |  |  |   |  |  |  |  |  |  |  |     
RH m  p  i  a  m  p  i  m   m  p  i  m  m  p  m  m
                                                 i
LH 1     2  1     1  3  2  3   1  2  3  3  2     1 

[17]II.....             II...........                                    

E|----------------------5-|-5--------5-------------|
B|-2----------------------|-------------1--------1-|
G|----2-------------------|-------2-----------2----|
D|-------2----------------|----4-----------2-------|
A|-0--------4--0----------|------------------------|
E|------------------------|------------------------|
   |  |  |  |  |  |  |  |   |  |  |  |  |  |  |  |  
RH a  m  i  p  p        m   m  p  i  a  m  p  i  m    

LH 1  1  1  3           4   4  3  1  4  1  3  2  1      

[19]

E|-------------2--------2-|-3--------3-------------|
B|-0--------0-------------|------------------------|
G|-------2-----------2----|-------0-----3--------3-|
D|----1-----------1-------|----2--------------5----|
A|------------------------|----------------5-------|
E|------------------------|------------------------|
   |  |  |  |  |  |  |  |   |  |  |  |  |  |  |  |     
RH m  p  i  m  a  p  i  a   a  p  i  a  m  p  i  m 

LH    1  2     3  1  2  3 / 3  1     3  1  2  3  1

[21]									                    

E|-------------0--------0-|-1--------------------0-|
B|------------------------|----------3--2----------|
G|-2--------2--------0----|-------------------0----|
D|-------5----------------|----0-h3--------2-------|
A|----4-----------4-------|------------------------|
E|------------------------|------------------------|
   |  |  |  |  |  |  |  |   |  |  |  |  |  |  |  |   
RH m  p  i  m  a  p  i  m   m  p     m  m  p  i  a   

LH 1  3  4  1     3         1     3  4  2  1            

[23]

E|----------0--1--------0-|-------------0--------0-|
B|-3----------------------|-3--------3-------------|
G|-------2-----------2----|-------2-----------1----|
D|----3-----------0-------|------------------------|
A|------------------------|----1-----------1-------|
E|------------------------|------------------------|
   |  |  |  |  |  |  |  |   |  |  |  |  |  |  |  |    
RH m  p  i  a  a  p  i  a   m  p  i  m  a  p  i  a

LH 4  3  2     1     2      4  1  2 4      1  2 

[25]     II...........................               

E|------------------------|-2--------2--0--------0-|
B|-2----------------------|------------------------|
G|-------2--------------2-|-------2-----------0----|
D|----------2-----2-------|----0-------------------|
A|----0--------4-----0----|----------------0-------|
E|------------------------|------------------------|
   |  |  |  |  |  |  |  |   |  |  |  |  |  |  |  |  
RH m  p  m  i  p  i  p  m   a  p  i  a  m  p  i  a   

LH 4     1  1  3  1     1   1     1  1  
             
[27] II....................

E|----------2-------------|-------------0----------|
B|-3--------------------3-|-0--------0-----------3-|
G|-------------2----------|-------0----------------|
D|-------4-----------4----|-------------------2----|
A|----5-----------5-------|------------------------|
E|------------------------|----3-----------4-------|
   |  |  |  |  |  |  |  |   |  |  |  |  |  |  |  |    
RH m  p  i  m  m  p  i  m   m  p  i  m  a  p  i  m

LH 2  4  3  1  1  4  3  2      2           3  1  2


[29]     II........................... 						       
  
E|------------------------|-2-------3p2-0-------2p0|
B|-3--------2--5----------|------------------------|
G|----------------------2-|-------2-----------0----|
D|-------2-----------2----|----0-------------------|
A|----0-----------0-------|----------------1-------|
E|------------------------|------------------------|
   |  |  |  |  |  |  |  |   |  |  |  |  |  |  |  |   
RH m  p  i  a  a  p  i  m   a  p  i  a  a  p  i  a     
                                                                 
LH 2     1  1  4     1  1   1     1  2     1     3   
									            
[31]                     

E|-------------0-------2p0|------------------------|
B|-3--------0--------0----|-3--------3--2--------2-|
G|-------------0----------|-------2-----------0----|
D|-------4----------------|-------4-----------2----|
A|----2-------------------|----0-----------0-------|
E|----------------0--3----|------------------------|
   |  |  |  |  |  |  |  |   |  |  |  |  |  |  |  |  
RH m  p  i  m  a  p  i  i   m  p  m  m  m  p  m  m  
               p     p            i           i
LH 4  1  3           2  1  3      1  2  2     1  2

[33]II...........

E|------------------------|
B|-3----------------------|
G|-------2----------------|
D|-4--------4-------------|
A|----5--------5----------|
E|------------------------|
   |  |  |  |  |    
RH m  p  m  i  p
   p
LH 2  4  1  3  4
   3
Добавлено: 21.06.2012
Другие материалы по этой песне:

Страница создана 09.04.2012
http://primanota.ru/fernando-sor/opus-35-no-17-in-d-chords.htm
Привет, Гость.
Предлагаем пройти революционный курс по гитаре.
Подарок от PrimaNota.Ru, забирай!