PrimaNota.ru - самый крупный в мире бесплатный архив песенных текстов, аккордов, табулатур и нот


Fernando Sor - Estudio 2 - таба, видео

Регистрация Запомнить меня
Войти через:  Facebook Google Twitter Vk Yandex Mail.ru

Fernando Sor - Estudio 2 - таба, видео

Печатать
Просмотров: 121
Уроки эстрадного вокала в Санкт-Петербурге
				Estudio 2
			     (Opus 35 No. 13)

							Fernando Sor	

Allegro

Tuning :EADGBE 
                                    C5                                 
|-0-------------------------------|-3----------------0---------------|--
|------------------1--------------|--------------------------1-------|--
|---------0-----0--------0-----0--|---------0-----0-------0-------0--|--
|------------2-----2--------2-----|------------2-----2-------2-------|--
|-3-------------------------------|-3--------------------------------|--
|---------------------------------|----------------------------------|--
1                                 2                                  3 

                                                                     
-----------------0---------------|---------------------------------|----
3------------------------3-------|-3----------------1--------------|----
--------0-----0-------0-------0--|---------0-----0--------0-----0--|----
-----------3-----3-------3-------|------------2-----2--------2-----|----
3--------------------------------|-3-------------------------------|----
---------------------------------|---------------------------------|----
                                 4                                 5 

                                  C5                                 
0-------------------------------|-3----------------0---------------|----
-----------------1--------------|--------------------------1-------|----
--------0-----0--------0-----0--|---------0-----0-------0-------0--|----
-----------2-----2--------2-----|------------2-----2-------2-------|----
3-------------------------------|-3--------------------------------|----
--------------------------------|----------------------------------|----
                                6                                  7 

                                                                      
-------------------------0-------|--------------------------------------
0----------------1---------------|-3------------------------------------
------0-------0-------0-------0--|---------0-------0-------0-------0----
0--------3-------2---------------|--------------------------------------
-------------------------3-------|-2------------------0-------2---------
---------------------------------|------------3-------------------------
                                 8                                    

                                     C5                               
|-0-------------------------------|--3----------------0-----------------
|------------------1--------------|---------------------------1---------
|---------0-----0--------0-----0--|----------0-----0-------0------------
|------------2-----2--------2-----|-------------2-----2-------2----5----
|-3-------------------------------|--3----------------------------------
|---------------------------------|-------------------------------------
9                                 10                                  

                                                                       
|-------------------0---------------|-----------------------------------
|--3------------------------3-------|--3----------------1---------------
|----------0-----0-------0-------0--|----------0-----0--------0-----0---
|-------------3-----3-------3-------|-------------2-----2--------2------
|--3--------------------------------|--3--------------------------------
|-----------------------------------|-----------------------------------
11                                  12                                 

                                      C5                               
|--0-------------------------------|--3----------------0----------------
|-------------------1--------------|---------------------------1--------
|----------0-----0--------0-----0--|----------0-----0-------0-------0---
|-------------2-----2--------2-----|-------------2-----2-------2--------
|--3-------------------------------|--3---------------------------------
|----------------------------------|------------------------------------
13                                 14                                  

                                                                   
|---------------------------0-------|---------------------------|-------
|--0----------------1---------------|--3------------------------|-------
|--------0-------0-------0-------0--|--------0-------------0----|-------
|--0--------3-------2---------------|-----------0---------------|-------
|---------------------------3-------|--2-----------2------------|-------
|-----------------------------------|-----------------3---------|-------
15                                  16                          17 

                                                                    
--------------------------------|---------------------------0-----------
3----------------3--------------|--3----------------1-------------------
--------0-----0--------0-----0--|----------------0-------0-------0------
-----------3-----3--------3-----|-------------------2-------2-----------
2-------------------------------|--3------------------------------------
--------------------------------|---------------------------------------
                                18                                  

                                                                     
3-------|--3-------1-------1-------1-------|--1----------------0--------
--------|-------0-------0-------3-------3--|----------3-----3-----------
-----0--|----------0---------------0-------|-------------0-----0--------
2-------|--0-------------------------------|----------------------------
--------|------------------2---------------|--3-------------------------
--------|----------------------------------|----------------------------
        19                                 20                        

                                                                       
---------|----------------------------------|---------------------0-----
1--------|--3----------------3--------------|--3----------1-------------
------0--|----------0-----0--------0-----0--|----------0-------0--------
---2-----|-------------3-----3--------3-----|-------------2-------2-----
---------|--2-------------------------------|--3------------------------
---------|----------------------------------|---------------------------
         21                                 22                         

                                                                       
---3-------|--1---------------0-------------------|---------------------
-----------|----------3---------------1-----------|--0-----------0--1---
0-------0--|-------0-------0-------0-----------0--|--------0--2---------
---2-------|--0-----------------------------------|---------------------
-----------|----------2-------3-------0-----------|---------------------
-----------|--------------------------------------|--3------------------
           23                                     24                   

                                               C5                    
---------|--0-------------------------------|--3----------------0-------
2--3--4--|-------------------1--------------|---------------------------
---------|----------0-----0--------0-----0--|----------0-----0----------
---------|-------------2-----2--------2-----|-------------2-----2-------
---------|--3-------------------------------|--3------------------------
---------|----------------------------------|---------------------------
         25                                 26                       

                                                                   
-----------|-----------------------------------|------------------------
---1-------|--3----------------5-------3-------|--3---------------------
0-------0--|----------4-----4-------4-------4--|----------2-----2-------
---2-------|-------------3-----3-------3-------|-------------2----------
-----------|-----------------------------------|--0---------------------
-----------|--4--------------------------------|------------------------
           27                                  28                  

                                                                     
---------------|----------------------------------|--0------------------
1--------------|--2----------------2--------------|-------------3-------
------2-----2--|----------3-----3--------3-----3--|----------2----------
2--------2-----|-------------2-----2--------2-----|-------------3-------
---------------|----------------------------------|---------------------
---------------|--3-------------------------------|--1------------------
               29                                 30                 

                      G5                                             
---1---------------|-------------------------------------|--------------
-----------3-------|--3----------1-------1-------0-------|--1-----------
2-------2-------2--|----------0-------0-------0-------0--|--------0-----
---3-------3-------|-------------2-------0-------3-------|--------------
-------------------|-------------------------------------|--3-----------
-------------------|--3----------------------------------|--------------
                   31                                    32          

           
------------------------------------------------------------------------
------------------------------------------------------------------------
---0--------------------------------------------------------------------
2-----------------------------------------------------------------------
------3-----------------------------------------------------------------
------------------------------------------------------------------------
           

>From :Samuel.Lumele (melesambo@hotmail.com)
     
Добавлено: 27.06.2013
Другие материалы по этой песне:

Страница создана 03.07.2012
http://primanota.ru/fernando-sor/estudio-2-chords.htm
Привет, Гость.
Предлагаем пройти революционный курс по гитаре.
Подарок от PrimaNota.Ru, забирай!