PrimaNota.ru - самый крупный в мире бесплатный архив песенных текстов, аккордов, табулатур и нот


Fernando Sor - Etude No 2 Op 60 - таба, видео

Регистрация Запомнить меня
Войти через:  Facebook Google Twitter Vk Yandex Mail.ru

Fernando Sor - Etude No 2 Op 60 - таба, видео

Печатать
Просмотров: 75
                           Etude No.2 op.60                             


                                                               Fernando Sor
                                                               
E||-----------------0--|--------0--1--------|--------------0-----|
B||--------0--1--3-----|-----3--------3--0--|--------0--------3--|
G||-----2--------------|--------------------|-----1--------------|
D||--------------------|--0-----------------|--2-----------------|
A||--0-----------------|--------------------|--------------------|
E||--------------------|--------------------|-----------0--------|


                                                               
--------------------|-----------------0--|--------0--1--------|
-----1--0--3--1--0--|--------0--1--3-----|-----3--------3--0--|
--------------------|-----2--------------|--------------------|
--------------------|--------------------|--0-----------------|
--0-----------------|--0-----------------|--------------------|
--------------------|--------------------|--------------------|


                                                                
--------------------|--------0----------||------------0--------|
--------0--------1--|--0----------------||---------0-----3--0--|
-----1-----2--------|-----1------------*||*-----1--------------|
--2-----------2-----|------------------*||*--2-----------------|
--------------------|-------------------||---------------------|
--------------------|-----------0-------||---------------------|


                                                               
-----------0--------|-----------0--------|-----------------0--|
--1-----1-----1-----|--------0-----3--0--|-----1--0-----1-----|
-----2-----------2--|-----1--------------|-----------2--------|
--2-----------------|--------------------|--------------------|
--------------------|--------------------|--0-----------------|
--------------------|--0-----------------|--------------------|


                                                               
-----1--1-----------|-----0--0-----------|--------------------|
--------------0--0--|--------------------|-----0--0-----------|
-----------0--------|--------------2--2--|--------------1--1--|
--0-----------------|-----------3--------|--0--------2--------|
--------------------|--3-----------------|--------------------|
--------------------|--------------------|--------------------|


                                                            
-------------------||------------0------|------------------|
-------------------||------2------------|-----3--2--0------|
-----2------------*||*--------2---------|------------------|
--------2---------*||*------------------|------------------|
--0--------0-------||---0---------------|------------------|
-------------------||-------------------|--0---------------|


                                                             
--------------------|-----0-----2--0-----|-----------0------|
-----2--0-----0--2--|--0-----4--------3--|-----2--3---------|
-----------2--------|--------------------|------------------|
--------------------|--------------------|------------------|
--0-----------------|--------------------|--0---------------|
--------------------|--0-----------------|------------------|


                                                             
------------------|--------0-----------|-------------------||
-----3--2--0------|-----2-----3--0-----|--------2----------||
------------------|-----------------1--|-----2------------*||
------------------|--2-----------------|------------------*||
------------------|--------------------|--0--------0-------||
--0---------------|--------------------|-------------------||


                                                            
-------------------|--------0--5------|-----4--2--2--0-----|
---------0--3------|-----2------------|-----------------3--|
*-----1------------|------------------|--------------------|
*------------------|------------------|--------------------|
-------------------|------------------|--------------------|
---0---------------|--0---------------|--0-----------------|


                                                           
-----------0--------|------------------|--------0--5------|
--2--3--4-----2-----|--------0--3------|-----2------------|
-----------------2--|-----1------------|------------------|
--------------------|------------------|------------------|
--------------------|------------------|------------------|
--0-----------------|--0---------------|--0---------------|


                                                             
-----2--------------|-----------0--------|-----------0------|
--------4--0--------|--------0-----3--0--|-----2------------|
--------------2-----|-----1--------------|--------2---------|
-----------------4--|--2-----------------|------------------|
--------------------|--------------------|--0---------------|
--0-----------------|--------------------|------------------|


                                                             
------------------|--------------------|-----0-----2--0-----|
-----3--2--0------|-----2--0-----0--2--|--0-----4--------3--|
------------------|-----------2--------|--------------------|
------------------|--------------------|--------------------|
------------------|--0-----------------|--------------------|
--0---------------|--------------------|--0-----------------|


                                                           
-----------0------|--------2--5------|-----0--------------|
-----2--3---------|-----3------------|--------2-----3--0--|
------------------|------------------|--------------------|
------------------|--0---------------|--2-----------------|
--0---------------|------------------|--------------------|
------------------|------------------|-----------0--------|


                                                               
-------------------||-----------------0--|--------0--1--------|
--------2----------||--------0--1--3-----|-----3--------3--0--|
--2---------------*||-----2--------------|--------------------|
-----2------------*||--------------------|--0-----------------|
--0--------0-------||--0-----------------|--------------------|
-------------------||--------------------|--------------------|


                                                               
--------------0-----|--------------------|-----------------0--|
--------0--------3--|-----1--0--3--1--0--|--------0--1--3-----|
-----1--------------|--------------------|-----2--------------|
--2-----------------|--------------------|--------------------|
--------------------|--0-----------------|--0-----------------|
-----------0--------|--------------------|--------------------|


                                                             
--------0--1--------|--------------------|--------0---------|
-----3--------3--0--|--------0--------1--|--0---------------|
--------------------|-----1-----2--------|-----1------------|
--0-----------------|--2-----------2-----|------------------|
--------------------|--------------------|------------------|
--------------------|--------------------|-----------0------|


                                                               
-----------0--------|-----------0--------|-----------0--------|
--------0-----3--0--|--1-----1-----1-----|--------0-----3--0--|
-----1--------------|-----2-----------2--|-----1--------------|
--2-----------------|--2-----------------|--------------------|
--------------------|--------------------|--------------------|
--------------------|--------------------|--0-----------------|


                                                               
-----------------0--|-----1--1-----------|-----0--0-----------|
-----1--0-----1-----|--------------0--0--|--------------------|
-----------2--------|-----------0--------|--------------2--2--|
--------------------|--0-----------------|-----------3--------|
--0-----------------|--------------------|--3-----------------|
--------------------|--------------------|--------------------|


                                         
--------------------|------------------||
--------------------|------------------||
-----0--0-----1--1--|-----2------------||
--0--------2--------|--------2---------||
--------------------|--0--------0------||
--------------------|------------------||

Transcribed by Martin Altenbeck
MartinAltenbeck@web.de


______________________________________________________________________________
     
Добавлено: 16.06.2013
Другие материалы по этой песне:
  • Аккорды и текст

Страница создана 16.06.2013
http://primanota.ru/fernando-sor/etude-no-2-op-60-chords.htm
Привет, Гость.
Предлагаем пройти революционный курс по гитаре.
Подарок от PrimaNota.Ru, забирай!