PrimaNota.ru - самый крупный в мире бесплатный архив песенных текстов, аккордов, табулатур и нот


Eyes Set To Kill - Flight On Broken Wings - текст песни, таба, бас-таба, видео

Регистрация Запомнить меня
Войти через:  Facebook Google Twitter Vk Yandex Mail.ru

Eyes Set To Kill - Flight On Broken Wings - текст песни, таба, бас-таба, видео

Печатать
Просмотров: 146
++++++++++++++++++++++++++++++++++++++++++++
| Eyes Set To Kill- Flight On Broken Wings |
++++++++++++++++++++++++++++++++++++++++++++

Hey, is it me or its like the 5th band
that has "broken wings" as a title...
Well anyways, this song rocks

Keys:

| h: Hammer On     |
| p: Pull Off      |
| ~: Let Note Ring |
| x: Mute          |
| /: Slide Up      |
| \: Slide Down    |

Tuning: EADGBe

Intro
Guitar 1
1.
e|---7-8-7-5---7-8---5---5-8-5---5-8-5-4-4-7-4-4-4-7-4-5-5-8-5-5-5-8-5-|
B|-6-------6-6---------6-----6-6-------6-----6-6-------6-----6-6-------|
G|---------------------------------------------------------------------|
D|---------------------------------------------------------------------|
A|---------------------------------------------------------------------|
E|---------------------------------------------------------------------|

2.
e|---7-8-7-5---7-8---5---5-8-5---5-8-5-4-4-7-4-4-4-7-4-5-5-8-5-5-5-8-5-|
B|-5-------5-5---------5-----5-5-------5-----5-5-------5-----5-5-------|
G|---------------------------------------------------------------------|
D|---------------------------------------------------------------------|
A|---------------------------------------------------------------------|
E|---------------------------------------------------------------------|

Verse
"We cant escape this..."
3.
e|---7-8-7-5---7-8---5---5-8-5---5-8-5-4-4-7-4-4-4-7-4-5-5-8-5-5-5-8-5-|
B|-6-------6-6---------6-----6-6-------6-----6-6-------6-----6-6-------|
G|---------------------------------------------------------------------|
D|---------------------------------------------------------------------|
A|---------------------------------------------------------------------|
E|---------------------------------------------------------------------|

4.
e|---7-8-7-5---7-8---5---5-8-5---5-8-5-4-4-7-4-4-4-7-4-5-5-8-5-5-5-8-5-|
B|-5-------5-5---------5-----5-5-------5-----5-5-------5-----5-5-------|
G|---------------------------------------------------------------------|
D|---------------------------------------------------------------------|
A|---------------------------------------------------------------------|
E|---------------------------------------------------------------------|

Guitar 1 keeps playing that during the first part of the song

0:51
Guitar 2
5.
e|-----------------------------------------------------------------8---7-12-|
B|-------------------------------------------------------------------6------|
G|-----------------------------2-4-5----------------------------------------|
D|-3-3333-3x--------3-3333-3x--------7-7777-7x--------7-7777-7x-------------|
A|-3-3333-3x--------3-3333-3x--------7-7777-7x--------7-7777-7x-------------|
E|-1-1111-1x--------1-1111-1x--------5-5555-5x--------5-5555-5x-------------|

6.
e|---------------------------------------------------------------------------------|
B|---------------------------------------------------------------------------------|
G|--------------------------------2-4-5---------------------------------7-5-4------|
D|-3-3333-3~----33x----3-3333-3~---------7-7777-7~----77x----7-7777-7~-------------|
A|-3-3333-3~----33x----3-3333-3~---------7-7777-7~----77x----7-7777-7~-------------|
E|-1-1111-1~----11x----1-1111-1~---------5-5555-5~----55x----5-5555-5~-------------|

Guitar 1
7.
e|------------------------------------------------------------------------8---7-12-|
B|--------------------------------------------------------------------------6------|
G|--------------------------------2-4-5--------------------------------------------|
D|-3-3333-3~----33x----3-3333-3~---------7-7777-7~----77x----7-7777-7~-------------|
A|-3-3333-3~----33x----3-3333-3~---------7-7777-7~----77x----7-7777-7~-------------|--x2
E|-1-1111-1~----11x----1-1111-1~---------5-5555-5~----55x----5-5555-5~-------------|

Guitar 2
8.
e|---------------------------------------------------------------------------------|
B|---------------------------------------------------------------------------------|
G|--------------------------------2-4-5---------------------------------7-5-4------|
D|-3-3333-3~----33x----3-3333-3~---------7-7777-7~----77x----7-7777-7~-------------|
A|-3-3333-3~----33x----3-3333-3~---------7-7777-7~----77x----7-7777-7~-------------|--x2
E|-1-1111-1~----11x----1-1111-1~---------5-5555-5~----55x----5-5555-5~-------------|

1:55
Guitar 1 *Really fast action, I cant specify the rythm, just listen 2 the song
9.
e|-------------------------------------------------------------------------|
B|-------------------------------------------------------------------------|
G|-------------------------------------------------------------------------|
D|-33333333-33333333-33333333-33333333-77777777-77777777-77777777-77777777-|
A|-33333333-33333333-33333333-33333333-77777777-77777777-77777777-77777777-|
E|-11111111-11111111-11111111-11111111-55555555-55555555-55555555-55555555-|

And I think the second guitar does this:

Guitar 2
10.
e|-------------------------|
B|-------------------------|
G|-2-2-5-4-4-4-2-2-5-4-4-4-|
D|-------------------------|--x2
A|-------------------------|
E|-------------------------|

Verse
Guitar 1
11.
e|-8---5-----------5-----7-----7/8--8---5-----------5-----7-----7/8-|
B|---6---6-----------6-----6----------6---6-----------6-----6-------|
G|---------7-5-4-5--------------------------7-5-4-5-----------------|
D|------------------------------------------------------------------|
A|------------------------------------------------------------------|--x4
E|------------------------------------------------------------------|

Guitar 2
12.
e|-------------------------------------------------------------------------|
B|-------------------------------------------------------------------------|
G|-------------------------------------------------------------------------|
D|-33333333-33333333-33333333-33333333-77777777-77777777-77777777-77777777-|
A|-33333333-33333333-33333333-33333333-77777777-77777777-77777777-77777777-|
E|-11111111-11111111-11111111-11111111-55555555-55555555-55555555-55555555-|

Chorus
Guitar 1
"We fall from midnight skies..."
13.
e|---------------------5---------5-----------------------------5~------|
B|-----------------------5---------5-----------------------------------|
G|-------------------------5---------5-4~------------------------------|
D|-333-3-3-555-5-5-777-------777-----------333-3-3-555-5-5-777---------|
A|-333-3-3-555-5-5-777-------777-----------333-3-3-555-5-5-777---------|
E|-111-1-1-333-3-3-555-------555-----------111-1-1-333-3-3-555---------|

14.
e|---------------------5---------5-------------------------|
B|-----------------------5---------5-----------------------|
G|-------------------------5---------5-4~------------------|
D|-333-3-3-555-5-5-777-------777-----------333-3-3-555-5-5-|
A|-333-3-3-555-5-5-777-------777-----------333-3-3-555-5-5-|
E|-111-1-1-333-3-3-555-------555-----------111-1-1-333-3-3-|

Guitar 2
15.
e|-------------------------------------------------------------------------|
B|-------------------------------------------------------------------------|
G|-------------------------------------------------------------4-4-4-4h5p4-|
D|-333-3-3-555-5-5-777x------777x----------333-3-3-555-5-5-777-------------|
A|-333-3-3-555-5-5-777x------777x----------333-3-3-555-5-5-777-------------|
E|-111-1-1-333-3-3-555x------555x----------111-1-1-333-3-3-555-------------|

16.
e|---------------------------------------------------------|
B|---------------------------------------------------------|
G|---------------------------------------------------------|
D|-333-3-3-555-5-5-777x------777x----------333-3-3-555-5-5-|
A|-333-3-3-555-5-5-777x------777x----------333-3-3-555-5-5-|
E|-111-1-1-333-3-3-555x------555x----------111-1-1-333-3-3-|

Verse
Guitar 1   2:43
17.
e|-8-8-8-5-5-5---------------------8-8-8-5-5-5-------------------|
B|-------------5-5-5---------------------------5-5-5-------------|
G|-------------------5-5-5-4-5-4---------------------5-5-5-4-5-4-|
D|---------------------------------------------------------------|--x2
A|---------------------------------------------------------------|
E|---------------------------------------------------------------|

18.
e|-8-8-8-5-5-5---------------------8-8-8-5-5-5-------------------|
B|-------------5-5-5---------------------------5-5-5-------------|
G|-------------------5-5-5-7-5-4---------------------5-5-5-4-5-4-|
D|---------------------------------------------------------------|
A|---------------------------------------------------------------|
E|---------------------------------------------------------------|

19.
e|-8-8-8-5-5-5---------------------8-8-8-5-5-5-------------------|
B|-------------5-5-5---------------------------5-5-5-------------|
G|-------------------5-5-5-4-5-4---------------------5-5-5-4-5-4-|
D|---------------------------------------------------------------|
A|---------------------------------------------------------------|
E|---------------------------------------------------------------|

Guitar 2   2:43
20.
e|--------------------------------------------------------------8-----|
B|----------------------------------------------------------------6-5-|
G|-----------------------------2-4-5----------------------------------|
D|-3-333-3x--------3-333-3~----------7-777-7~--77x--7-777-7~----------|
A|-3-333-3x--------3-333-3~----------7-777-7~--77x--7-777-7~----------|
E|-1-111-1x--------1-111-1~----------5-555-5~--55x--5-555-5~----------|

21.
e|--------------------------------------------------------------8-----|
B|----------------------------------------------------------------6-5-|
G|-----------------------------2-4-5-------------7-5-4----------------|
D|-3-333-3~--33x---3-333-3~----------7-777-7~----------7-777-7~-------|
A|-3-333-3~--33x---3-333-3~----------7-777-7~----------7-777-7~-------|
E|-1-111-1~--11x---1-111-1~----------5-555-5~----------5-555-5~-------|

Outro.
Both Guitars
22.
e|--------------------------------------------------------------8---7-----|
B|----------------------------------------------------------------6---6-5-|
G|-----------------------------2-4-5--------------------------------------|
D|-3-333-3x--------3-333-3~----------7-777-7~--77x--7-777-7~--------------|
A|-3-333-3x--------3-333-3~----------7-777-7~--77x--7-777-7~--------------|--x2
E|-1-111-1x--------1-111-1~----------5-555-5~--55x--5-555-5~--------------|

3:22
23.
e|------------------------------------------------|
B|------------------------------------------------|
G|------------------------------------------------|
D|-3~----xxx-3~----xxx-3~----xxx-3~----/7~--------|
A|-3~----xxx-3~----xxx-3~----xxx-3~----/7~--------|
E|-1~----xxx-1~----xxx-1~----xxx-1~----/5~--------|

Bridge
Guitar 1
24.
e|---------------------------------------------------------------|
B|-5555-5555-5555-5555-5555-5555-5555-5555-----------------------|
G|-5555-4444-7777-5555-5555-4444-7777-7777-----------------------|
D|---------------------------------------------------------------|
A|---------------------------------------------------------------|--x6
E|---------------------------------------------------------------|

4:22
Guitar 1
"On these broken wings..."
25.
e|-8----8-10----10-12----12/13-13-13--8-----7---7-8-----7-----|
B|---10------10-------10----------------6-6---6-----5-5---5-5-|
G|------------------------------------------------------------|
D|------------------------------------------------------------|--x4
A|------------------------------------------------------------|
E|------------------------------------------------------------|

Guitar 2
26.
e|-------------------------------------------------|
B|-------------5-5-5-6-6-6-------------------------|
G|-5-5-5-7-7-7-------------------------------------|
D|-------------------------3-3-3-3-3-3-5-5-5-5-5-5-|--x4
A|-------------------------------------------------|
E|-------------------------------------------------|

4:51
Guitar 1
27.
e|--------------------------------------------------|
B|-------------5-5-5-6-6-6--------------------------|
G|-5-5-5/7-7-7--------------------------------------|
D|-------------------------3-3-3-3-3-3-5-5-5-5-5-5--|--x2
A|-------------------------3-3-3-3-3-3-5-5-5-5-5-5--|
E|-------------------------1-1-1-1-1-1-3-3-3-3-3-3--|

28.
e|--------------------------------------------------|
B|-6-6-6-5-5-5--------------------------------------|
G|-------------7-7-7-5-5-5--------------------------|
D|-------------------------3-3-3-3-3-3-5-5-5-5-5-5--|--x2
A|-------------------------3-3-3-3-3-3-5-5-5-5-5-5--|
E|-------------------------1-1-1-1-1-1-3-3-3-3-3-3--|

Guitar 2
29.
e|--------------------------------------------------|
B|--------------------------------------------------|
G|--------------------------------------------------|
D|-7-7-7-7-7-7-7-7-7-7-7-7-3-3-3-3-3-3-5-5-5-5-5-5--|--x4
A|-7-7-7-7-7-7-7-7-7-7-7-7-3-3-3-3-3-3-5-5-5-5-5-5--|
E|-5-5-5-5-5-5-5-5-5-5-5-5-1-1-1-1-1-1-3-3-3-3-3-3--|

Outro
Guitar 1
30.
e|---5-7-8---7-8---7-------|
B|-5-------5-----5---6-6-6-|
G|-------------------------|
D|-------------------------|
A|-------------------------|
E|-------------------------|

Guitar 2
31.
e|---------------------------------------------|
B|---------------------------------------------| I know its now the same sound
G|---------------------------------------------| but probably you need some
D|----7----7----7------------------------------| distorsion in your amp
A|-77---77---77---777--------------------------|
E|-55---55---55---555--------------------------|

Ok im really sleepy now and I just wanna go to bed
I hope you've liked it and I look forward to tab out more Eyes Set To Kill songs
Good night ;)

Dont forget 2 rate me 

+++++++++++++++++++++++++++++++++
| RaiLeff                       |
| Underground__Dora@Hotmail.Com |
+++++++++++++++++++++++++++++++++
Добавлено: 22.02.2012
Другие материалы по этой песне:
  • Аккорды и текст

Страница создана 22.02.2012
http://primanota.ru/eyes-set-to-kill/flight-on-broken-wings-chords.htm
Привет, Гость.
Предлагаем пройти революционный курс по гитаре.
Подарок от PrimaNota.Ru, забирай!