PrimaNota.ru - самый крупный в мире бесплатный архив песенных текстов, аккордов, табулатур и нот


Eyes Set To Kill - This Love You Breath - таба, видео

Регистрация Запомнить меня
Войти через:  Facebook Google Twitter Vk Yandex Mail.ru

Eyes Set To Kill - This Love You Breath - таба, видео

Печатать
Просмотров: 144
-------------------------------------------------------------------------------
                 Eyes Set To Kill - This Love You Breath
-------------------------------------------------------------------------------

Tab: Davo

EN:
Well here is my really first tab, I think is very accurate,
but any corrections and coments I would be glad if you send them to me:
hail_dave@hotmail.com

Please Rate!

ES:
Bueno aqui esta mi primera tab, creo que es muy precisa pero cualquier correccion y comentarios
se los agradeceria mucho:
hail_dave@hotmail.com

Califiquen!


EN: Maybe I'm wrong in some numbers of 0's at distortion part, but you can listen to the song
and get the correct number and rythm.

ES: Tal ves me equivoque en algunos numeros de 0's con la distorcion pero pueden
escuchar la cancion y sacarlos de ahi y tambien el ritmo.

Lead Guitar:

e ---0--00000-00000-00000-0000-0-00000-00000-00000-0000---------|
b ---6--66666-66666-66666-6666-5-55555-55555-55555-5555--x12----|
g ---7--77777-77777-77777-7777-7-77777-77777-77777-7777---------|
d --------------------------------------------------------------|
a --------------------------------------------------------------|
E --------------------------------------------------------------|


e ---0---0--------0--------0-------0----------------------------|
b ---6----6--6-6---6--6-6---6--6-6-6----/12---------------------|
g ---7--7---7-7--7---7-7--7---7-7--7----------------------------|
d ---7-----7----7---7----7---7-----7----------------------------|
a --------------------------------------------------------------|
E --------------------------------------------------------------|

(01:45)

T=10

Rythm Guitar
e -----------------------------------------------------------------------|
b -----------------------------------------------------------------------|
g -----------------------------------------------------------------------|
d -----------------------------------------------------------------------|
a ---00000000-000---00000000-000----88888888-888---88888888-8-TTTTTTTT---|
D ---00000000-000---00000000-000----88888888-888---88888888-8-TTTTTTTT---|

Lead Guitar                                                                 x 3
e -----------------------------------------------------------------------|
b ------------------------------------------------------------6p5--------|
g ---------------7/10-----------7/10----------7/10\7-------------7-5-----|
d ---------------x-x------------x-x-----------x-x--x----------------6----|
a ---------------5/8------------5/8-----------5/8\5----------------------|
E -----------------------------------------------------------------------|


(02:15)

Lead Guitar
e ---0--0--0--0--0--0--6--6----|
b ----6--6--6--6--5--5--5--5---|
g -----7--7--7--7--7--7--7--7--| x 4
d -----------------------------|
a -----------------------------|
E -----------------------------|

(02:33)

Lead Guitar
e ---0--0--0--0--0--0--6--6----|
b ----6--6--6--6--5--5--5--5---|
g -----7--7--7--7--7--7--7--7--|
d -----------------------------|
a -----------------------------|
E -----------------------------|

Rythm Guitar
e -------------------------------|
b -------------------------------|
g -------------------------------|
d --888888888888888888888888888--|
a --888888888888888888888888888--|
D --888888888888888888888888888--|


(02:39)

Lead Guitar (Distorted) & Rythm Guitar
e   -----------------------------------------|
b   ------------------------11p10------------|
g   -----------10----------------12p10-------|
d   --00000000-x--00000000------------12p11--|
a   --00000000-8--00000000-------------------|
E/D --00000000----00000000-------------------|

e   -----------------------------------------|
b   ------------------------11p10------------|
g   -----------10----------------12p10-------|
d   --00000000-x--00000000------------12p11--|
a   --00000000-8--00000000-------------------|
e/D --00000000----00000000-------------------|


(02:44)

Lead Guitar
e ---0--0--0--0--0--0--6--6----|
b ----6--6--6--6--5--5--5--5---|
g -----7--7--7--7--7--7--7--7--|
d -----------------------------|
a -----------------------------|
E -----------------------------|

Rythm Guitar
e -------------------------------|
b -------------------------------|
g -------------------------------|
d --888888888888888888888888888--|
a --888888888888888888888888888--|
D --888888888888888888888888888--|

(02:49)

Lead Guitar (Distorted) & Rythm Guitar
e   -----------------------------------------|
b   ------------------------11p10------------|
g   -----------10----------------12p10-------|
d   --00000000-x--00000000------------12p11--|
a   --00000000-8--00000000-------------------|
E/D --00000000----00000000-------------------|

e   -----------------------------------------|
b   ------------------------11p10------------|
g   -----------10----------------12p10-------|
d   --00000000-x--00000000------------12p11--|
a   --00000000-8--00000000-------------------|
E/D --00000000----00000000-------------------|

e   --------------------------------------------------------------------|
b   ------------------------------6p5------6p5------6p5------6p5--------|
g   --333333333333555555222222-------7--------7--------7--------7-------|
d   --333333333333555555222222-000----7-000----7-000----7-000----7-000--|
a   --111111111111333333000000-000------000------000------000------000--|
E/D ---------------------------000------000------000------000------000--|

Lead Guitar (Distorted) & Rythm Guitar
e   ----------------------------|
b   ----------------------------|
g   --333333333333555555222222--|
d   --333333333333555555222222--|
a   --111111111111333333000000--|
E/D ----------------------------|


(03:08)

Lead Guitar
e ----------------------------------------------------|
b --6-6-6-------5-5-5----5--6-6-6-------5-5-5-5-5-5---|
g --------7-7-7------6-7----------7-7-7---------------| x2
d ---7-7-7-7-7-7-7-7--7-7-7--7-7-7-7-7-7-7-7-7-7-7-7--|
a ----------------------------------------------------|
E ----------------------------------------------------|

Lead Guitar
e ---------------------------------------------------|
b --6-6-6-5-5-5-----------5-6-6-6-5-5-5--------------|
g --------------7-7-7-6-7---------------7-7-7-6-6-6--| x2
d ---7-7-7-7-7-7-7-7-7-7-7-7-7-7-7-7-7-7-7-7-7-7-7-7-|
a ---------------------------------------------------|
E ---------------------------------------------------|


(03:48)

Lead Guitar (Distorted) & Rythm Guitar
e   ---------------------------------------------|
b   ---------11p9--11p9h11-----------------------|
g   --------------11---------------------10~~~---| x2
d   -00---00-----------------88--TT--777-x-------|
a   -00---00-----------------88--TT--777-8~~~----|
E/D -00---00-----------------88--TT--777---------|

Lead Guitar (Distorted) & Rythm Guitar
e   ---------------------------------------|
b   ---------------------------------------|
g   ---------------------------------------|
d   -8-------------------------------------|
a   -8---Both Guitars Pick Slide To Down---|
E/D -8-------------------------------------|


(04:12)

Lead Guitar (Distorted) & Rythm Guitar
e   ----------------------------------------------------------|
b   ----------------------------------------------------------|
g   --14---12---10---9----10---9----5----7----3----5----2-----| x2
d   --x-x3-x-x3-x- 3-x-x3-x-x3-x-x3-x-x3-x-x3-x-x12-x6--x-x6--|
a   --12---10---8----7----8----7----3----5----1----3----0-----|
E/D ----------------------------------------------------------|

Lead Guitar (Distorted) & Rythm Guitar
e   --------------------------------|
b   --------------------------------|
g   --10----9-----10----12---9------| x2
d   --x-x12-x-x12-x-x12-x-x6-x-x6---|
a   --8-----7-----8-----10---7------|
E/D --------------------------------|


(04:50)

Lead Guitar (Distorted) & Rythm Guitar
e   -----------------------------------------------------------|
b   -------6p5-------6p5-------6p5-----------------------------|
g   ----------7---------7---------7-7~-------------------------| x4
d   ---000-----7-000-----7-000-(*)-7-----      (*): 0-00-000-0-|
a   ---000-------000-------000-(*)-------      (*): 0-00-000-0-| Rythm Guitar
E/D ---000-------000-------000-(*)-------      (*): 0-00-000-0-|


(05:09)
Lead Guitar (Distorted) & Rythm Guitar
e   ----------------------------------------------------|
b   ----------------------------------------------------|
g   ------------------------------------10--10--10------| x2
d   ---00000000--00000000--00000000--00-x-x-x-x-x-------|
a   ---00000000--00000000--00000000--00-8-x-8-x-8-------|
E/D ---00000000--00000000--00000000--00---x---x---------|

e   ---------------------------------------------------|
b   ---------------------------------------------------|
g   ------------12----------7-------------10--10--10---| x2
d   ---00000000-x--00000000-x-00000000-00-x-x-x-x-x----|
a   ---00000000-10-00000000-5-00000000-00-8-x-8-x-8----|
E/D ---00000000----00000000---00000000-00---x---x------|

e   ----------------------------------------------------|
b   ----------------------------------------------------|
g   ------------------------------------10--10--10------| x2
d   ---00000000--00000000--00000000--00-x-x-x-x-x-------|
a   ---00000000--00000000--00000000--00-8-x-8-x-8-------|
E/D ---00000000--00000000--00000000--00---x---x---------|

e   ---------------------------------|
b   ---------------------------------|
g   ---------------------------------| x2
d   ---0------00000000--0------------|
a   ---0------00000000--0------------|
E/D ---0------00000000--0------------|
Добавлено: 09.03.2012
Другие материалы по этой песне:
  • Аккорды и текст

Страница создана 09.03.2012
http://primanota.ru/eyes-set-to-kill/this-love-you-breath-chords.htm
Привет, Гость.
Предлагаем пройти революционный курс по гитаре.
Подарок от PrimaNota.Ru, забирай!